  0
SECTION
  2
HEADER
  9
$ACADVER
  1
AC1009
  9
$INSBASE
 10
0.0
 20
0.0
 30
0.0
  9
$EXTMIN
 10
281.396000
 20
29.897000
 30
-2147483.648000
  9
$EXTMAX
 10
291.896000
 20
44.747000
 30
0.000000
  9
$LIMMIN
 10
280.396000
 20
28.897000
  9
$LIMMAX
 10
292.896000
 20
43.747000
  9
$ORTHOMODE
 70
     0
  9
$REGENMODE
 70
     1
  9
$FILLMODE
 70
     1
  9
$QTEXTMODE
 70
     0
  9
$MIRRTEXT
 70
     1
  9
$DRAGMODE
 70
     2
  9
$LTSCALE
 40
1.0
  9
$OSMODE
 70
     0
  9
$ATTMODE
 70
     1
  9
$TEXTSIZE
 40
0.2
  9
$TRACEWID
 40
0.05
  9
$TEXTSTYLE
  7
STANDARD
  9
$CLAYER
  8
0
  9
$CELTYPE
  6
BYLAYER
  9
$CECOLOR
 62
   256
  9
$DIMSCALE
 40
1.0
  9
$DIMASZ
 40
0.18
  9
$DIMEXO
 40
0.0625
  9
$DIMDLI
 40
0.38
  9
$DIMRND
 40
0.0
  9
$DIMDLE
 40
0.0
  9
$DIMEXE
 40
0.18
  9
$DIMTP
 40
0.0
  9
$DIMTM
 40
0.0
  9
$DIMTXT
 40
0.18
  9
$DIMCEN
 40
0.09
  9
$DIMTSZ
 40
0.0
  9
$DIMTOL
 70
     0
  9
$DIMLIM
 70
     0
  9
$DIMTIH
 70
     1
  9
$DIMTOH
 70
     1
  9
$DIMSE1
 70
     0
  9
$DIMSE2
 70
     0
  9
$DIMTAD
 70
     0
  9
$DIMZIN
 70
     0
  9
$DIMBLK
  1

  9
$DIMASO
 70
     1
  9
$DIMSHO
 70
     1
  9
$DIMPOST
  1

  9
$DIMAPOST
  1

  9
$DIMALT
 70
     0
  9
$DIMALTD
 70
     2
  9
$DIMALTF
 40
25.4
  9
$DIMLFAC
 40
1.0
  9
$DIMTOFL
 70
     0
  9
$DIMTVP
 40
0.0
  9
$DIMTIX
 70
     0
  9
$DIMSOXD
 70
     0
  9
$DIMSAH
 70
     0
  9
$DIMBLK1
  1

  9
$DIMBLK2
  1

  9
$DIMSTYLE
  2
*UNNAMED
  9
$DIMCLRD
 70
     0
  9
$DIMCLRE
 70
     0
  9
$DIMCLRT
 70
     0
  9
$DIMTFAC
 40
1.0
  9
$DIMGAP
 40
0.09
  9
$LUNITS
 70
     2
  9
$LUPREC
 70
     4
  9
$AXISMODE
 70
     0
  9
$AXISUNIT
 10
0.0
 20
0.0
  9
$SKETCHINC
 40
0.1
  9
$FILLETRAD
 40
0.0
  9
$AUNITS
 70
     0
  9
$AUPREC
 70
     0
  9
$MENU
  1
acad
  9
$ELEVATION
 40
0.0
  9
$PELEVATION
 40
0.0
  9
$THICKNESS
 40
0.0
  9
$LIMCHECK
 70
     0
  9
$BLIPMODE
 70
     1
  9
$CHAMFERA
 40
0.0
  9
$CHAMFERB
 40
0.0
  9
$SKPOLY
 70
     0
  9
$TDCREATE
 40
2448315.373408102
  9
$TDUPDATE
 40
2448315.373408102
  9
$TDINDWG
 40
0.0000000000
  9
$TDUSRTIMER
 40
0.0000000000
  9
$USRTIMER
 70
     1
  9
$ANGBASE
 50
0.0
  9
$ANGDIR
 70
     0
  9
$PDMODE
 70
     0
  9
$PDSIZE
 40
0.0
  9
$PLINEWID
 40
0.0
  9
$COORDS
 70
     0
  9
$SPLFRAME
 70
     0
  9
$SPLINETYPE
 70
     6
  9
$SPLINESEGS
 70
     8
  9
$ATTDIA
 70
     0
  9
$ATTREQ
 70
     1
  9
$HANDLING
 70
     0
  9
$HANDSEED
  5
0
  9
$SURFTAB1
 70
     6
  9
$SURFTAB2
 70
     6
  9
$SURFTYPE
 70
     6
  9
$SURFU
 70
     6
  9
$SURFV
 70
     6
  9
$UCSNAME
  2

  9
$UCSORG
 10
0.0
 20
0.0
 30
0.0
  9
$UCSXDIR
 10
1.0
 20
0.0
 30
0.0
  9
$UCSYDIR
 10
0.0
 20
1.0
 30
0.0
  9
$PUCSNAME
  2

  9
$PUCSORG
 10
0.0
 20
0.0
 30
0.0
  9
$PUCSXDIR
 10
1.0
 20
0.0
 30
0.0
  9
$PUCSYDIR
 10
0.0
 20
1.0
 30
0.0
  9
$USERI1
 70
     0
  9
$USERI2
 70
     0
  9
$USERI3
 70
     0
  9
$USERI4
 70
     0
  9
$USERI5
 70
     0
  9
$USERR1
 40
0.0
  9
$USERR2
 40
0.0
  9
$USERR3
 40
0.0
  9
$USERR4
 40
0.0
  9
$USERR5
 40
0.0
  9
$WORLDVIEW
 70
     1
  9
$SHADEDGE
 70
     3
  9
$SHADEDIF
 70
    70
  9
$TILEMODE
 70
     1
  9
$MAXACTVP
 70
    16
  9
$PINSBASE
 10
0.0
 20
0.0
 30
0.0
  9
$PLIMCHECK
 70
     0
  9
$PEXTMIN
 10
1.000000E+20
 20
1.000000E+20
 30
1.000000E+20
  9
$PEXTMAX
 10
-1.000000E+20
 20
-1.000000E+20
 30
-1.000000E+20
  9
$PLIMMIN
 10
0.0
 20
0.0
  9
$PLIMMAX
 10
12.0
 20
9.0
  9
$UNITMODE
 70
     0
  9
$VISRETAIN
 70
     0
  0
ENDSEC
  0
SECTION
  2
TABLES
  0
TABLE
  2
LTYPE
 70
    1
  0
LTYPE
  2
CONTINUOUS
 70
    64
3
Solid line
 72
    65
 73
0
 40
0.000000
  0
ENDTAB
  0
TABLE
  2
LAYER
 70
    8
  0
LAYER
  2
0
 70
    64
 62
7
  6
CONTINUOUS
  0
LAYER
  2
1
 70
    64
 62
7
  6
CONTINUOUS
  0
LAYER
  2
7
 70
    64
 62
7
  6
CONTINUOUS
  0
LAYER
  2
8
 70
    64
 62
7
  6
CONTINUOUS
  0
LAYER
  2
9
 70
    64
 62
7
  6
CONTINUOUS
  0
LAYER
  2
22
 70
    64
 62
7
  6
CONTINUOUS
  0
LAYER
  2
25
 70
    64
 62
7
  6
CONTINUOUS
  0
LAYER
  2
0
 70
    64
 62
7
  6
CONTINUOUS
  0
ENDTAB
  0
TABLE
  2
STYLE
 70
    1
  0
STYLE
  2
ROMANC
70
     0
 40
0.0
 41
1.0
 50
0.0
 71
     0
 42
0.2
  3
ROMANC
  4

  0
ENDTAB
  0
ENDSEC
  0
SECTION
  2
BLOCKS
  0
ENDSEC
  0
SECTION
  2
ENTITIES
  0
TEXT
  8
0
  6
CONTINUOUS
 40
0.100000
 10
286.909000
 20
41.324000
  1
2
  7
ROMANC
  0
TEXT
  8
0
  6
CONTINUOUS
 40
0.300000
 10
283.926000
 20
41.768000
  1
ESCALA  1:50
  7
ROMANC
  0
POLYLINE
  8
0
  6
CONTINUOUS
 66
     1
 70
     1
  0
VERTEX
  8
0
  6
CONTINUOUS
 10
281.396000
 20
44.747000
  0
VERTEX
  8
0
  6
CONTINUOUS
 10
291.896000
 20
44.747000
  0
VERTEX
  8
0
  6
CONTINUOUS
 10
291.896000
 20
29.897000
  0
VERTEX
  8
0
  6
CONTINUOUS
 10
281.396000
 20
29.897000
  0
SEQEND
  8
0
  0
TEXT
  8
0
  6
CONTINUOUS
 40
0.300000
 10
283.926000
 20
42.381000
  1
TIPUS   T141B
  7
ROMANC
  0
TEXT
  8
0
  6
CONTINUOUS
 40
0.300000
 10
283.922000
 20
40.529000
  1
P = 47 dm
  7
ROMANC
  0
TEXT
  8
0
  6
CONTINUOUS
 40
0.300000
 10
283.945000
 20
41.099000
  1
S = 151 dm
  7
ROMANC
  0
LINE
  8
1
  6
CONTINUOUS
 10
285.199000
 20
34.704000
 11
285.374000
 21
33.704000
  0
LINE
  8
1
  6
CONTINUOUS
 10
285.374000
 20
33.704000
 11
285.574000
 21
33.704000
  0
TEXT
  8
1
  6
CONTINUOUS
 40
0.075000
 10
284.950000
 20
33.406000
  1
0.20
  7
ROMANC
  0
LINE
  8
1
  6
CONTINUOUS
 10
285.300000
 20
33.444000
 11
285.374000
 21
33.444000
  0
LINE
  8
1
  6
CONTINUOUS
 10
285.724000
 20
33.444000
 11
285.574000
 21
33.444000
  0
LINE
  8
1
  6
CONTINUOUS
 10
285.412000
 20
33.463000
 11
285.336000
 21
33.425000
  0
LINE
  8
1
  6
CONTINUOUS
 10
285.536000
 20
33.425000
 11
285.612000
 21
33.463000
  0
LINE
  8
1
  6
CONTINUOUS
 10
285.374000
 20
33.666000
 11
285.374000
 21
33.406000
  0
LINE
  8
1
  6
CONTINUOUS
 10
285.574000
 20
33.666000
 11
285.574000
 21
33.406000
  0
ARC
  8
1
  6
CONTINUOUS
 10
285.774000
 20
33.762333
 40
0.208333
 50
196.260206
 51
343.739797
  0
LINE
  8
1
  6
CONTINUOUS
 10
285.974000
 20
33.704000
 11
286.174000
 21
33.704000
  0
TEXT
  8
1
  6
CONTINUOUS
 40
0.075000
 10
285.652000
 20
33.264000
  1
0.40
  7
ROMANC
  0
LINE
  8
1
  6
CONTINUOUS
 10
285.424000
 20
33.301000
 11
285.574000
 21
33.301000
  0
LINE
  8
1
  6
CONTINUOUS
 10
286.124000
 20
33.301000
 11
285.974000
 21
33.301000
  0
LINE
  8
1
  6
CONTINUOUS
 10
285.612000
 20
33.320000
 11
285.536000
 21
33.282000
  0
LINE
  8
1
  6
CONTINUOUS
 10
285.936000
 20
33.282000
 11
286.012000
 21
33.320000
  0
LINE
  8
1
  6
CONTINUOUS
 10
285.574000
 20
33.666000
 11
285.574000
 21
33.263000
  0
LINE
  8
1
  6
CONTINUOUS
 10
285.974000
 20
33.666000
 11
285.974000
 21
33.263000
  0
TEXT
  8
1
  6
CONTINUOUS
 40
0.075000
 10
286.374000
 20
33.406000
  1
0.20
  7
ROMANC
  0
LINE
  8
1
  6
CONTINUOUS
 10
285.824000
 20
33.444000
 11
285.974000
 21
33.444000
  0
LINE
  8
1
  6
CONTINUOUS
 10
286.336000
 20
33.444000
 11
286.174000
 21
33.444000
  0
LINE
  8
1
  6
CONTINUOUS
 10
286.012000
 20
33.463000
 11
285.936000
 21
33.425000
  0
LINE
  8
1
  6
CONTINUOUS
 10
286.136000
 20
33.425000
 11
286.212000
 21
33.463000
  0
LINE
  8
1
  6
CONTINUOUS
 10
285.974000
 20
33.666000
 11
285.974000
 21
33.406000
  0
LINE
  8
1
  6
CONTINUOUS
 10
286.174000
 20
33.666000
 11
286.174000
 21
33.406000
  0
LINE
  8
1
  6
CONTINUOUS
 10
286.174000
 20
33.704000
 11
286.349000
 21
34.704000
  0
TEXT
  8
1
  6
CONTINUOUS
 40
0.075000
 10
286.396000
 20
33.887000
  1
0.15
 50
90.000000
  7
ROMANC
  0
LINE
  8
1
  6
CONTINUOUS
 10
286.359000
 20
33.404000
 11
286.359000
 21
33.554000
  0
LINE
  8
1
  6
CONTINUOUS
 10
286.359000
 20
33.849000
 11
286.359000
 21
33.704000
  0
LINE
  8
1
  6
CONTINUOUS
 10
286.340000
 20
33.592000
 11
286.378000
 21
33.516000
  0
LINE
  8
1
  6
CONTINUOUS
 10
286.378000
 20
33.666000
 11
286.340000
 21
33.742000
  0
LINE
  8
1
  6
CONTINUOUS
 10
285.812000
 20
33.554000
 11
286.397000
 21
33.554000
  0
LINE
  8
1
  6
CONTINUOUS
 10
286.212000
 20
33.704000
 11
286.397000
 21
33.704000
  0
ARC
  8
1
  6
CONTINUOUS
 10
285.774000
 20
34.678432
 40
0.575568
 50
362.546058
 51
537.453939
  0
TEXT
  8
1
  6
CONTINUOUS
 40
0.075000
 10
286.590000
 20
34.094000
  1
1.00
 50
90.000000
  7
ROMANC
  0
LINE
  8
1
  6
CONTINUOUS
 10
286.553000
 20
34.056000
 11
286.553000
 21
33.704000
  0
LINE
  8
1
  6
CONTINUOUS
 10
286.553000
 20
34.351000
 11
286.553000
 21
34.704000
  0
LINE
  8
1
  6
CONTINUOUS
 10
286.572000
 20
33.666000
 11
286.534000
 21
33.742000
  0
LINE
  8
1
  6
CONTINUOUS
 10
286.534000
 20
34.742000
 11
286.572000
 21
34.666000
  0
LINE
  8
1
  6
CONTINUOUS
 10
286.212000
 20
33.704000
 11
286.591000
 21
33.704000
  0
LINE
  8
1
  6
CONTINUOUS
 10
286.387000
 20
34.704000
 11
286.591000
 21
34.704000
  0
TEXT
  8
1
  6
CONTINUOUS
 40
0.075000
 10
286.590000
 20
34.860000
  1
0.55
 50
90.000000
  7
ROMANC
  0
LINE
  8
1
  6
CONTINUOUS
 10
286.553000
 20
34.554000
 11
286.553000
 21
34.704000
  0
LINE
  8
1
  6
CONTINUOUS
 10
286.553000
 20
35.404000
 11
286.553000
 21
35.254000
  0
LINE
  8
1
  6
CONTINUOUS
 10
286.534000
 20
34.742000
 11
286.572000
 21
34.666000
  0
LINE
  8
1
  6
CONTINUOUS
 10
286.572000
 20
35.216000
 11
286.534000
 21
35.292000
  0
LINE
  8
1
  6
CONTINUOUS
 10
285.812000
 20
35.254000
 11
286.591000
 21
35.254000
  0
TEXT
  8
1
  6
CONTINUOUS
 40
0.075000
 10
285.673000
 20
35.396000
  1
1.15
  7
ROMANC
  0
LINE
  8
1
  6
CONTINUOUS
 10
285.635000
 20
35.433000
 11
285.199000
 21
35.433000
  0
LINE
  8
1
  6
CONTINUOUS
 10
285.912000
 20
35.433000
 11
286.349000
 21
35.433000
  0
LINE
  8
1
  6
CONTINUOUS
 10
285.162000
 20
35.414000
 11
285.236000
 21
35.452000
  0
LINE
  8
1
  6
CONTINUOUS
 10
286.386000
 20
35.452000
 11
286.312000
 21
35.414000
  0
LINE
  8
1
  6
CONTINUOUS
 10
285.199000
 20
34.742000
 11
285.199000
 21
35.471000
  0
LINE
  8
1
  6
CONTINUOUS
 10
286.349000
 20
34.742000
 11
286.349000
 21
35.471000
  0
TEXT
  8
1
  6
CONTINUOUS
 40
0.075000
 10
286.792000
 20
34.294000
  1
1.70
 50
90.000000
  7
ROMANC
  0
LINE
  8
1
  6
CONTINUOUS
 10
286.755000
 20
34.256000
 11
286.755000
 21
33.554000
  0
LINE
  8
1
  6
CONTINUOUS
 10
286.755000
 20
34.551000
 11
286.755000
 21
35.254000
  0
LINE
  8
1
  6
CONTINUOUS
 10
286.774000
 20
33.516000
 11
286.736000
 21
33.592000
  0
LINE
  8
1
  6
CONTINUOUS
 10
286.736000
 20
35.292000
 11
286.774000
 21
35.216000
  0
LINE
  8
1
  6
CONTINUOUS
 10
285.812000
 20
33.554000
 11
286.793000
 21
33.554000
  0
LINE
  8
1
  6
CONTINUOUS
 10
285.812000
 20
35.254000
 11
286.793000
 21
35.254000
  0
TEXT
  8
1
  6
CONTINUOUS
 40
0.075000
 10
285.655000
 20
33.070000
  1
0.80
  7
ROMANC
  0
LINE
  8
1
  6
CONTINUOUS
 10
285.617000
 20
33.108000
 11
285.374000
 21
33.108000
  0
LINE
  8
1
  6
CONTINUOUS
 10
285.929000
 20
33.108000
 11
286.174000
 21
33.108000
  0
LINE
  8
1
  6
CONTINUOUS
 10
285.336000
 20
33.089000
 11
285.412000
 21
33.127000
  0
LINE
  8
1
  6
CONTINUOUS
 10
286.212000
 20
33.127000
 11
286.136000
 21
33.089000
  0
LINE
  8
1
  6
CONTINUOUS
 10
285.374000
 20
33.666000
 11
285.374000
 21
33.070000
  0
LINE
  8
1
  6
CONTINUOUS
 10
286.174000
 20
33.666000
 11
286.174000
 21
33.070000
  0
ARC
  8
1
  6
CONTINUOUS
 10
285.774000
 20
34.678432
 40
0.585568
 50
362.794606
 51
537.650764
  0
ARC
  8
1
  6
CONTINUOUS
 10
285.774000
 20
34.678432
 40
0.595568
 50
362.600692
 51
537.843981
  0
LINE
  8
1
  6
CONTINUOUS
 10
285.189000
 20
34.702000
 11
285.365000
 21
33.694000
  0
LINE
  8
1
  6
CONTINUOUS
 10
285.179000
 20
34.701000
 11
285.357000
 21
33.684000
  0
LINE
  8
1
  6
CONTINUOUS
 10
285.365000
 20
33.694000
 11
285.567000
 21
33.694000
  0
LINE
  8
1
  6
CONTINUOUS
 10
285.357000
 20
33.684000
 11
285.560000
 21
33.684000
  0
ARC
  8
1
  6
CONTINUOUS
 10
285.774000
 20
33.762333
 40
0.218333
 50
198.238736
 51
341.761264
  0
ARC
  8
1
  6
CONTINUOUS
 10
285.774000
 20
33.762333
 40
0.228333
 50
200.063764
 51
339.936236
  0
LINE
  8
1
  6
CONTINUOUS
 10
285.981000
 20
33.694000
 11
286.182000
 21
33.694000
  0
LINE
  8
1
  6
CONTINUOUS
 10
285.988000
 20
33.684000
 11
286.190000
 21
33.684000
  0
LINE
  8
1
  6
CONTINUOUS
 10
286.182000
 20
33.694000
 11
286.359000
 21
34.707000
  0
LINE
  8
1
  6
CONTINUOUS
 10
286.190000
 20
33.684000
 11
286.369000
 21
34.705000
  0
ENDSEC
  0
EOF
