  0
SECTION
  2
HEADER
  9
$ACADVER
  1
AC1009
  9
$INSBASE
 10
0.0
 20
0.0
 30
0.0
  9
$EXTMIN
 10
281.396000
 20
29.897000
 30
-2147483.648000
  9
$EXTMAX
 10
291.896000
 20
44.747000
 30
0.000000
  9
$LIMMIN
 10
280.396000
 20
28.897000
  9
$LIMMAX
 10
292.896000
 20
43.747000
  9
$ORTHOMODE
 70
     0
  9
$REGENMODE
 70
     1
  9
$FILLMODE
 70
     1
  9
$QTEXTMODE
 70
     0
  9
$MIRRTEXT
 70
     1
  9
$DRAGMODE
 70
     2
  9
$LTSCALE
 40
1.0
  9
$OSMODE
 70
     0
  9
$ATTMODE
 70
     1
  9
$TEXTSIZE
 40
0.2
  9
$TRACEWID
 40
0.05
  9
$TEXTSTYLE
  7
STANDARD
  9
$CLAYER
  8
0
  9
$CELTYPE
  6
BYLAYER
  9
$CECOLOR
 62
   256
  9
$DIMSCALE
 40
1.0
  9
$DIMASZ
 40
0.18
  9
$DIMEXO
 40
0.0625
  9
$DIMDLI
 40
0.38
  9
$DIMRND
 40
0.0
  9
$DIMDLE
 40
0.0
  9
$DIMEXE
 40
0.18
  9
$DIMTP
 40
0.0
  9
$DIMTM
 40
0.0
  9
$DIMTXT
 40
0.18
  9
$DIMCEN
 40
0.09
  9
$DIMTSZ
 40
0.0
  9
$DIMTOL
 70
     0
  9
$DIMLIM
 70
     0
  9
$DIMTIH
 70
     1
  9
$DIMTOH
 70
     1
  9
$DIMSE1
 70
     0
  9
$DIMSE2
 70
     0
  9
$DIMTAD
 70
     0
  9
$DIMZIN
 70
     0
  9
$DIMBLK
  1

  9
$DIMASO
 70
     1
  9
$DIMSHO
 70
     1
  9
$DIMPOST
  1

  9
$DIMAPOST
  1

  9
$DIMALT
 70
     0
  9
$DIMALTD
 70
     2
  9
$DIMALTF
 40
25.4
  9
$DIMLFAC
 40
1.0
  9
$DIMTOFL
 70
     0
  9
$DIMTVP
 40
0.0
  9
$DIMTIX
 70
     0
  9
$DIMSOXD
 70
     0
  9
$DIMSAH
 70
     0
  9
$DIMBLK1
  1

  9
$DIMBLK2
  1

  9
$DIMSTYLE
  2
*UNNAMED
  9
$DIMCLRD
 70
     0
  9
$DIMCLRE
 70
     0
  9
$DIMCLRT
 70
     0
  9
$DIMTFAC
 40
1.0
  9
$DIMGAP
 40
0.09
  9
$LUNITS
 70
     2
  9
$LUPREC
 70
     4
  9
$AXISMODE
 70
     0
  9
$AXISUNIT
 10
0.0
 20
0.0
  9
$SKETCHINC
 40
0.1
  9
$FILLETRAD
 40
0.0
  9
$AUNITS
 70
     0
  9
$AUPREC
 70
     0
  9
$MENU
  1
acad
  9
$ELEVATION
 40
0.0
  9
$PELEVATION
 40
0.0
  9
$THICKNESS
 40
0.0
  9
$LIMCHECK
 70
     0
  9
$BLIPMODE
 70
     1
  9
$CHAMFERA
 40
0.0
  9
$CHAMFERB
 40
0.0
  9
$SKPOLY
 70
     0
  9
$TDCREATE
 40
2448315.373408102
  9
$TDUPDATE
 40
2448315.373408102
  9
$TDINDWG
 40
0.0000000000
  9
$TDUSRTIMER
 40
0.0000000000
  9
$USRTIMER
 70
     1
  9
$ANGBASE
 50
0.0
  9
$ANGDIR
 70
     0
  9
$PDMODE
 70
     0
  9
$PDSIZE
 40
0.0
  9
$PLINEWID
 40
0.0
  9
$COORDS
 70
     0
  9
$SPLFRAME
 70
     0
  9
$SPLINETYPE
 70
     6
  9
$SPLINESEGS
 70
     8
  9
$ATTDIA
 70
     0
  9
$ATTREQ
 70
     1
  9
$HANDLING
 70
     0
  9
$HANDSEED
  5
0
  9
$SURFTAB1
 70
     6
  9
$SURFTAB2
 70
     6
  9
$SURFTYPE
 70
     6
  9
$SURFU
 70
     6
  9
$SURFV
 70
     6
  9
$UCSNAME
  2

  9
$UCSORG
 10
0.0
 20
0.0
 30
0.0
  9
$UCSXDIR
 10
1.0
 20
0.0
 30
0.0
  9
$UCSYDIR
 10
0.0
 20
1.0
 30
0.0
  9
$PUCSNAME
  2

  9
$PUCSORG
 10
0.0
 20
0.0
 30
0.0
  9
$PUCSXDIR
 10
1.0
 20
0.0
 30
0.0
  9
$PUCSYDIR
 10
0.0
 20
1.0
 30
0.0
  9
$USERI1
 70
     0
  9
$USERI2
 70
     0
  9
$USERI3
 70
     0
  9
$USERI4
 70
     0
  9
$USERI5
 70
     0
  9
$USERR1
 40
0.0
  9
$USERR2
 40
0.0
  9
$USERR3
 40
0.0
  9
$USERR4
 40
0.0
  9
$USERR5
 40
0.0
  9
$WORLDVIEW
 70
     1
  9
$SHADEDGE
 70
     3
  9
$SHADEDIF
 70
    70
  9
$TILEMODE
 70
     1
  9
$MAXACTVP
 70
    16
  9
$PINSBASE
 10
0.0
 20
0.0
 30
0.0
  9
$PLIMCHECK
 70
     0
  9
$PEXTMIN
 10
1.000000E+20
 20
1.000000E+20
 30
1.000000E+20
  9
$PEXTMAX
 10
-1.000000E+20
 20
-1.000000E+20
 30
-1.000000E+20
  9
$PLIMMIN
 10
0.0
 20
0.0
  9
$PLIMMAX
 10
12.0
 20
9.0
  9
$UNITMODE
 70
     0
  9
$VISRETAIN
 70
     0
  0
ENDSEC
  0
SECTION
  2
TABLES
  0
TABLE
  2
LTYPE
 70
    1
  0
LTYPE
  2
CONTINUOUS
 70
    64
3
Solid line
 72
    65
 73
0
 40
0.000000
  0
ENDTAB
  0
TABLE
  2
LAYER
 70
    8
  0
LAYER
  2
0
 70
    64
 62
7
  6
CONTINUOUS
  0
LAYER
  2
1
 70
    64
 62
7
  6
CONTINUOUS
  0
LAYER
  2
7
 70
    64
 62
7
  6
CONTINUOUS
  0
LAYER
  2
8
 70
    64
 62
7
  6
CONTINUOUS
  0
LAYER
  2
9
 70
    64
 62
7
  6
CONTINUOUS
  0
LAYER
  2
22
 70
    64
 62
7
  6
CONTINUOUS
  0
LAYER
  2
25
 70
    64
 62
7
  6
CONTINUOUS
  0
LAYER
  2
0
 70
    64
 62
7
  6
CONTINUOUS
  0
ENDTAB
  0
TABLE
  2
STYLE
 70
    1
  0
STYLE
  2
ROMANC
70
     0
 40
0.0
 41
1.0
 50
0.0
 71
     0
 42
0.2
  3
ROMANC
  4

  0
ENDTAB
  0
ENDSEC
  0
SECTION
  2
BLOCKS
  0
ENDSEC
  0
SECTION
  2
ENTITIES
  0
TEXT
  8
0
  6
CONTINUOUS
 40
0.100000
 10
286.909000
 20
41.324000
  1
2
  7
ROMANC
  0
TEXT
  8
0
  6
CONTINUOUS
 40
0.300000
 10
283.926000
 20
41.768000
  1
ESCALA  1:50
  7
ROMANC
  0
POLYLINE
  8
0
  6
CONTINUOUS
 66
     1
 70
     1
  0
VERTEX
  8
0
  6
CONTINUOUS
 10
281.396000
 20
44.747000
  0
VERTEX
  8
0
  6
CONTINUOUS
 10
291.896000
 20
44.747000
  0
VERTEX
  8
0
  6
CONTINUOUS
 10
291.896000
 20
29.897000
  0
VERTEX
  8
0
  6
CONTINUOUS
 10
281.396000
 20
29.897000
  0
SEQEND
  8
0
  0
TEXT
  8
0
  6
CONTINUOUS
 40
0.300000
 10
283.926000
 20
42.381000
  1
TIPUS   T136
  7
ROMANC
  0
TEXT
  8
0
  6
CONTINUOUS
 40
0.300000
 10
283.922000
 20
40.529000
  1
P = 45 dm
  7
ROMANC
  0
TEXT
  8
0
  6
CONTINUOUS
 40
0.300000
 10
283.945000
 20
41.099000
  1
S = 136 dm
  7
ROMANC
  0
TEXT
  8
1
  6
CONTINUOUS
 40
0.075000
 10
285.034000
 20
33.566000
  1
0.15
  7
ROMANC
  0
LINE
  8
1
  6
CONTINUOUS
 10
285.367000
 20
33.604000
 11
285.440000
 21
33.604000
  0
LINE
  8
1
  6
CONTINUOUS
 10
285.740000
 20
33.604000
 11
285.590000
 21
33.604000
  0
LINE
  8
1
  6
CONTINUOUS
 10
285.478000
 20
33.623000
 11
285.402000
 21
33.585000
  0
LINE
  8
1
  6
CONTINUOUS
 10
285.552000
 20
33.585000
 11
285.628000
 21
33.623000
  0
LINE
  8
1
  6
CONTINUOUS
 10
285.440000
 20
33.937000
 11
285.440000
 21
33.566000
  0
LINE
  8
1
  6
CONTINUOUS
 10
285.590000
 20
33.937000
 11
285.590000
 21
33.566000
  0
TEXT
  8
1
  6
CONTINUOUS
 40
0.075000
 10
285.796000
 20
33.566000
  1
0.65
  7
ROMANC
  0
LINE
  8
1
  6
CONTINUOUS
 10
285.758000
 20
33.604000
 11
285.590000
 21
33.604000
  0
LINE
  8
1
  6
CONTINUOUS
 10
286.070000
 20
33.604000
 11
286.240000
 21
33.604000
  0
LINE
  8
1
  6
CONTINUOUS
 10
285.552000
 20
33.585000
 11
285.628000
 21
33.623000
  0
LINE
  8
1
  6
CONTINUOUS
 10
286.278000
 20
33.623000
 11
286.202000
 21
33.585000
  0
LINE
  8
1
  6
CONTINUOUS
 10
285.590000
 20
33.937000
 11
285.590000
 21
33.566000
  0
LINE
  8
1
  6
CONTINUOUS
 10
286.240000
 20
33.937000
 11
286.240000
 21
33.566000
  0
TEXT
  8
1
  6
CONTINUOUS
 40
0.075000
 10
286.477000
 20
33.566000
  1
0.15
  7
ROMANC
  0
LINE
  8
1
  6
CONTINUOUS
 10
286.090000
 20
33.604000
 11
286.240000
 21
33.604000
  0
LINE
  8
1
  6
CONTINUOUS
 10
286.439000
 20
33.604000
 11
286.390000
 21
33.604000
  0
LINE
  8
1
  6
CONTINUOUS
 10
286.278000
 20
33.623000
 11
286.202000
 21
33.585000
  0
LINE
  8
1
  6
CONTINUOUS
 10
286.352000
 20
33.585000
 11
286.428000
 21
33.623000
  0
LINE
  8
1
  6
CONTINUOUS
 10
286.240000
 20
33.937000
 11
286.240000
 21
33.566000
  0
LINE
  8
1
  6
CONTINUOUS
 10
286.390000
 20
33.937000
 11
286.390000
 21
33.566000
  0
TEXT
  8
1
  6
CONTINUOUS
 40
0.075000
 10
286.830000
 20
34.029000
  1
0.20
 50
90.000000
  7
ROMANC
  0
LINE
  8
1
  6
CONTINUOUS
 10
286.792000
 20
33.625000
 11
286.792000
 21
33.775000
  0
LINE
  8
1
  6
CONTINUOUS
 10
286.792000
 20
33.991000
 11
286.792000
 21
33.975000
  0
LINE
  8
1
  6
CONTINUOUS
 10
286.773000
 20
33.812000
 11
286.811000
 21
33.738000
  0
LINE
  8
1
  6
CONTINUOUS
 10
286.811000
 20
33.938000
 11
286.773000
 21
34.012000
  0
LINE
  8
1
  6
CONTINUOUS
 10
285.953000
 20
33.775000
 11
286.830000
 21
33.775000
  0
LINE
  8
1
  6
CONTINUOUS
 10
286.428000
 20
33.975000
 11
286.830000
 21
33.975000
  0
TEXT
  8
1
  6
CONTINUOUS
 40
0.075000
 10
286.642000
 20
34.306000
  1
0.90
 50
90.000000
  7
ROMANC
  0
LINE
  8
1
  6
CONTINUOUS
 10
286.604000
 20
34.268000
 11
286.604000
 21
33.975000
  0
LINE
  8
1
  6
CONTINUOUS
 10
286.604000
 20
34.580000
 11
286.604000
 21
34.875000
  0
LINE
  8
1
  6
CONTINUOUS
 10
286.623000
 20
33.938000
 11
286.585000
 21
34.012000
  0
LINE
  8
1
  6
CONTINUOUS
 10
286.585000
 20
34.912000
 11
286.623000
 21
34.838000
  0
LINE
  8
1
  6
CONTINUOUS
 10
286.428000
 20
33.975000
 11
286.642000
 21
33.975000
  0
LINE
  8
1
  6
CONTINUOUS
 10
286.453000
 20
34.875000
 11
286.642000
 21
34.875000
  0
TEXT
  8
1
  6
CONTINUOUS
 40
0.075000
 10
286.642000
 20
35.006000
  1
0.50
 50
90.000000
  7
ROMANC
  0
LINE
  8
1
  6
CONTINUOUS
 10
286.604000
 20
34.725000
 11
286.604000
 21
34.875000
  0
LINE
  8
1
  6
CONTINUOUS
 10
286.604000
 20
35.525000
 11
286.604000
 21
35.375000
  0
LINE
  8
1
  6
CONTINUOUS
 10
286.585000
 20
34.912000
 11
286.623000
 21
34.838000
  0
LINE
  8
1
  6
CONTINUOUS
 10
286.623000
 20
35.338000
 11
286.585000
 21
35.412000
  0
LINE
  8
1
  6
CONTINUOUS
 10
285.953000
 20
35.375000
 11
286.642000
 21
35.375000
  0
TEXT
  8
1
  6
CONTINUOUS
 40
0.075000
 10
286.960000
 20
34.465000
  1
1.60
 50
90.000000
  7
ROMANC
  0
LINE
  8
1
  6
CONTINUOUS
 10
286.922000
 20
34.427000
 11
286.922000
 21
33.775000
  0
LINE
  8
1
  6
CONTINUOUS
 10
286.922000
 20
34.722000
 11
286.922000
 21
35.375000
  0
LINE
  8
1
  6
CONTINUOUS
 10
286.941000
 20
33.738000
 11
286.903000
 21
33.812000
  0
LINE
  8
1
  6
CONTINUOUS
 10
286.903000
 20
35.412000
 11
286.941000
 21
35.338000
  0
LINE
  8
1
  6
CONTINUOUS
 10
285.953000
 20
33.775000
 11
286.960000
 21
33.775000
  0
LINE
  8
1
  6
CONTINUOUS
 10
285.953000
 20
35.375000
 11
286.960000
 21
35.375000
  0
TEXT
  8
1
  6
CONTINUOUS
 40
0.075000
 10
285.796000
 20
33.388000
  1
0.95
  7
ROMANC
  0
LINE
  8
1
  6
CONTINUOUS
 10
285.758000
 20
33.425000
 11
285.440000
 21
33.425000
  0
LINE
  8
1
  6
CONTINUOUS
 10
286.070000
 20
33.425000
 11
286.390000
 21
33.425000
  0
LINE
  8
1
  6
CONTINUOUS
 10
285.402000
 20
33.406000
 11
285.478000
 21
33.444000
  0
LINE
  8
1
  6
CONTINUOUS
 10
286.428000
 20
33.444000
 11
286.352000
 21
33.406000
  0
LINE
  8
1
  6
CONTINUOUS
 10
285.440000
 20
33.937000
 11
285.440000
 21
33.387000
  0
LINE
  8
1
  6
CONTINUOUS
 10
286.390000
 20
33.937000
 11
286.390000
 21
33.387000
  0
LINE
  8
1
  6
CONTINUOUS
 10
286.390000
 20
33.975000
 11
286.240000
 21
33.975000
  0
ARC
  8
1
  6
CONTINUOUS
 10
285.915000
 20
34.139063
 40
0.364063
 50
206.784994
 51
333.215003
  0
LINE
  8
1
  6
CONTINUOUS
 10
285.590000
 20
33.975000
 11
285.440000
 21
33.975000
  0
LINE
  8
1
  6
CONTINUOUS
 10
285.440000
 20
33.975000
 11
285.415000
 21
34.875000
  0
ARC
  8
1
  6
CONTINUOUS
 10
285.915000
 20
34.875000
 40
0.500000
 50
0.000000
 51
180.000000
  0
TEXT
  8
1
  6
CONTINUOUS
 40
0.075000
 10
285.805000
 20
35.500000
  1
1.00
  7
ROMANC
  0
LINE
  8
1
  6
CONTINUOUS
 10
285.767000
 20
35.538000
 11
285.415000
 21
35.538000
  0
LINE
  8
1
  6
CONTINUOUS
 10
286.062000
 20
35.538000
 11
286.415000
 21
35.538000
  0
LINE
  8
1
  6
CONTINUOUS
 10
285.378000
 20
35.519000
 11
285.452000
 21
35.557000
  0
LINE
  8
1
  6
CONTINUOUS
 10
286.452000
 20
35.557000
 11
286.378000
 21
35.519000
  0
LINE
  8
1
  6
CONTINUOUS
 10
285.415000
 20
34.913000
 11
285.415000
 21
35.576000
  0
LINE
  8
1
  6
CONTINUOUS
 10
286.415000
 20
34.913000
 11
286.415000
 21
35.576000
  0
LINE
  8
1
  6
CONTINUOUS
 10
286.415000
 20
34.875000
 11
286.390000
 21
33.975000
  0
LINE
  8
1
  6
CONTINUOUS
 10
285.430000
 20
33.965000
 11
285.405000
 21
34.874000
  0
LINE
  8
1
  6
CONTINUOUS
 10
285.421000
 20
33.955000
 11
285.395000
 21
34.874000
  0
ARC
  8
1
  6
CONTINUOUS
 10
285.915000
 20
34.875000
 40
0.510000
 50
0.000000
 51
180.000000
  0
ARC
  8
1
  6
CONTINUOUS
 10
285.915000
 20
34.875000
 40
0.520000
 50
0.000000
 51
180.000000
  0
LINE
  8
1
  6
CONTINUOUS
 10
286.424000
 20
34.874000
 11
286.399000
 21
33.965000
  0
LINE
  8
1
  6
CONTINUOUS
 10
286.434000
 20
34.874000
 11
286.408000
 21
33.955000
  0
LINE
  8
1
  6
CONTINUOUS
 10
286.399000
 20
33.965000
 11
286.246000
 21
33.965000
  0
LINE
  8
1
  6
CONTINUOUS
 10
286.408000
 20
33.955000
 11
286.252000
 21
33.955000
  0
ARC
  8
1
  6
CONTINUOUS
 10
285.915000
 20
34.139063
 40
0.374063
 50
207.731581
 51
332.268419
  0
ARC
  8
1
  6
CONTINUOUS
 10
285.915000
 20
34.139063
 40
0.384063
 50
208.636522
 51
331.363478
  0
LINE
  8
1
  6
CONTINUOUS
 10
285.584000
 20
33.965000
 11
285.430000
 21
33.965000
  0
LINE
  8
1
  6
CONTINUOUS
 10
285.578000
 20
33.955000
 11
285.421000
 21
33.955000
  0
ENDSEC
  0
EOF
