  0
SECTION
  2
HEADER
  9
$ACADVER
  1
AC1009
  9
$INSBASE
 10
0.0
 20
0.0
 30
0.0
  9
$EXTMIN
 10
281.396000
 20
29.897000
 30
-2147483.648000
  9
$EXTMAX
 10
291.896000
 20
44.747000
 30
0.000000
  9
$LIMMIN
 10
280.396000
 20
28.897000
  9
$LIMMAX
 10
292.896000
 20
43.747000
  9
$ORTHOMODE
 70
     0
  9
$REGENMODE
 70
     1
  9
$FILLMODE
 70
     1
  9
$QTEXTMODE
 70
     0
  9
$MIRRTEXT
 70
     1
  9
$DRAGMODE
 70
     2
  9
$LTSCALE
 40
1.0
  9
$OSMODE
 70
     0
  9
$ATTMODE
 70
     1
  9
$TEXTSIZE
 40
0.2
  9
$TRACEWID
 40
0.05
  9
$TEXTSTYLE
  7
STANDARD
  9
$CLAYER
  8
0
  9
$CELTYPE
  6
BYLAYER
  9
$CECOLOR
 62
   256
  9
$DIMSCALE
 40
1.0
  9
$DIMASZ
 40
0.18
  9
$DIMEXO
 40
0.0625
  9
$DIMDLI
 40
0.38
  9
$DIMRND
 40
0.0
  9
$DIMDLE
 40
0.0
  9
$DIMEXE
 40
0.18
  9
$DIMTP
 40
0.0
  9
$DIMTM
 40
0.0
  9
$DIMTXT
 40
0.18
  9
$DIMCEN
 40
0.09
  9
$DIMTSZ
 40
0.0
  9
$DIMTOL
 70
     0
  9
$DIMLIM
 70
     0
  9
$DIMTIH
 70
     1
  9
$DIMTOH
 70
     1
  9
$DIMSE1
 70
     0
  9
$DIMSE2
 70
     0
  9
$DIMTAD
 70
     0
  9
$DIMZIN
 70
     0
  9
$DIMBLK
  1

  9
$DIMASO
 70
     1
  9
$DIMSHO
 70
     1
  9
$DIMPOST
  1

  9
$DIMAPOST
  1

  9
$DIMALT
 70
     0
  9
$DIMALTD
 70
     2
  9
$DIMALTF
 40
25.4
  9
$DIMLFAC
 40
1.0
  9
$DIMTOFL
 70
     0
  9
$DIMTVP
 40
0.0
  9
$DIMTIX
 70
     0
  9
$DIMSOXD
 70
     0
  9
$DIMSAH
 70
     0
  9
$DIMBLK1
  1

  9
$DIMBLK2
  1

  9
$DIMSTYLE
  2
*UNNAMED
  9
$DIMCLRD
 70
     0
  9
$DIMCLRE
 70
     0
  9
$DIMCLRT
 70
     0
  9
$DIMTFAC
 40
1.0
  9
$DIMGAP
 40
0.09
  9
$LUNITS
 70
     2
  9
$LUPREC
 70
     4
  9
$AXISMODE
 70
     0
  9
$AXISUNIT
 10
0.0
 20
0.0
  9
$SKETCHINC
 40
0.1
  9
$FILLETRAD
 40
0.0
  9
$AUNITS
 70
     0
  9
$AUPREC
 70
     0
  9
$MENU
  1
acad
  9
$ELEVATION
 40
0.0
  9
$PELEVATION
 40
0.0
  9
$THICKNESS
 40
0.0
  9
$LIMCHECK
 70
     0
  9
$BLIPMODE
 70
     1
  9
$CHAMFERA
 40
0.0
  9
$CHAMFERB
 40
0.0
  9
$SKPOLY
 70
     0
  9
$TDCREATE
 40
2448315.373408102
  9
$TDUPDATE
 40
2448315.373408102
  9
$TDINDWG
 40
0.0000000000
  9
$TDUSRTIMER
 40
0.0000000000
  9
$USRTIMER
 70
     1
  9
$ANGBASE
 50
0.0
  9
$ANGDIR
 70
     0
  9
$PDMODE
 70
     0
  9
$PDSIZE
 40
0.0
  9
$PLINEWID
 40
0.0
  9
$COORDS
 70
     0
  9
$SPLFRAME
 70
     0
  9
$SPLINETYPE
 70
     6
  9
$SPLINESEGS
 70
     8
  9
$ATTDIA
 70
     0
  9
$ATTREQ
 70
     1
  9
$HANDLING
 70
     0
  9
$HANDSEED
  5
0
  9
$SURFTAB1
 70
     6
  9
$SURFTAB2
 70
     6
  9
$SURFTYPE
 70
     6
  9
$SURFU
 70
     6
  9
$SURFV
 70
     6
  9
$UCSNAME
  2

  9
$UCSORG
 10
0.0
 20
0.0
 30
0.0
  9
$UCSXDIR
 10
1.0
 20
0.0
 30
0.0
  9
$UCSYDIR
 10
0.0
 20
1.0
 30
0.0
  9
$PUCSNAME
  2

  9
$PUCSORG
 10
0.0
 20
0.0
 30
0.0
  9
$PUCSXDIR
 10
1.0
 20
0.0
 30
0.0
  9
$PUCSYDIR
 10
0.0
 20
1.0
 30
0.0
  9
$USERI1
 70
     0
  9
$USERI2
 70
     0
  9
$USERI3
 70
     0
  9
$USERI4
 70
     0
  9
$USERI5
 70
     0
  9
$USERR1
 40
0.0
  9
$USERR2
 40
0.0
  9
$USERR3
 40
0.0
  9
$USERR4
 40
0.0
  9
$USERR5
 40
0.0
  9
$WORLDVIEW
 70
     1
  9
$SHADEDGE
 70
     3
  9
$SHADEDIF
 70
    70
  9
$TILEMODE
 70
     1
  9
$MAXACTVP
 70
    16
  9
$PINSBASE
 10
0.0
 20
0.0
 30
0.0
  9
$PLIMCHECK
 70
     0
  9
$PEXTMIN
 10
1.000000E+20
 20
1.000000E+20
 30
1.000000E+20
  9
$PEXTMAX
 10
-1.000000E+20
 20
-1.000000E+20
 30
-1.000000E+20
  9
$PLIMMIN
 10
0.0
 20
0.0
  9
$PLIMMAX
 10
12.0
 20
9.0
  9
$UNITMODE
 70
     0
  9
$VISRETAIN
 70
     0
  0
ENDSEC
  0
SECTION
  2
TABLES
  0
TABLE
  2
LTYPE
 70
    1
  0
LTYPE
  2
CONTINUOUS
 70
    64
3
Solid line
 72
    65
 73
0
 40
0.000000
  0
ENDTAB
  0
TABLE
  2
LAYER
 70
    8
  0
LAYER
  2
0
 70
    64
 62
7
  6
CONTINUOUS
  0
LAYER
  2
1
 70
    64
 62
7
  6
CONTINUOUS
  0
LAYER
  2
7
 70
    64
 62
7
  6
CONTINUOUS
  0
LAYER
  2
8
 70
    64
 62
7
  6
CONTINUOUS
  0
LAYER
  2
9
 70
    64
 62
7
  6
CONTINUOUS
  0
LAYER
  2
22
 70
    64
 62
7
  6
CONTINUOUS
  0
LAYER
  2
25
 70
    64
 62
7
  6
CONTINUOUS
  0
LAYER
  2
0
 70
    64
 62
7
  6
CONTINUOUS
  0
ENDTAB
  0
TABLE
  2
STYLE
 70
    1
  0
STYLE
  2
ROMANC
70
     0
 40
0.0
 41
1.0
 50
0.0
 71
     0
 42
0.2
  3
ROMANC
  4

  0
ENDTAB
  0
ENDSEC
  0
SECTION
  2
BLOCKS
  0
ENDSEC
  0
SECTION
  2
ENTITIES
  0
TEXT
  8
0
  6
CONTINUOUS
 40
0.100000
 10
286.909000
 20
41.324000
  1
2
  7
ROMANC
  0
TEXT
  8
0
  6
CONTINUOUS
 40
0.300000
 10
283.926000
 20
41.768000
  1
ESCALA  1:50
  7
ROMANC
  0
POLYLINE
  8
0
  6
CONTINUOUS
 66
     1
 70
     1
  0
VERTEX
  8
0
  6
CONTINUOUS
 10
281.396000
 20
44.747000
  0
VERTEX
  8
0
  6
CONTINUOUS
 10
291.896000
 20
44.747000
  0
VERTEX
  8
0
  6
CONTINUOUS
 10
291.896000
 20
29.897000
  0
VERTEX
  8
0
  6
CONTINUOUS
 10
281.396000
 20
29.897000
  0
SEQEND
  8
0
  0
TEXT
  8
0
  6
CONTINUOUS
 40
0.300000
 10
283.926000
 20
42.381000
  1
TIPUS   T131
  7
ROMANC
  0
LINE
  8
1
  6
CONTINUOUS
 10
286.498000
 20
34.641000
 11
286.398000
 21
33.841000
  0
LINE
  8
1
  6
CONTINUOUS
 10
285.498000
 20
33.841000
 11
285.398000
 21
34.641000
  0
TEXT
  8
0
  6
CONTINUOUS
 40
0.300000
 10
283.922000
 20
40.529000
  1
P = 44 dm
  7
ROMANC
  0
TEXT
  8
0
  6
CONTINUOUS
 40
0.300000
 10
283.945000
 20
41.099000
  1
S = 131 dm
  7
ROMANC
  0
LINE
  8
1
  6
CONTINUOUS
 10
285.748000
 20
33.841000
 11
285.498000
 21
33.841000
  0
TEXT
  8
1
  6
CONTINUOUS
 40
0.075000
 10
285.074000
 20
33.566000
  1
0.25
  7
ROMANC
  0
LINE
  8
1
  6
CONTINUOUS
 10
285.424000
 20
33.603000
 11
285.498000
 21
33.603000
  0
LINE
  8
1
  6
CONTINUOUS
 10
285.898000
 20
33.603000
 11
285.748000
 21
33.603000
  0
LINE
  8
1
  6
CONTINUOUS
 10
285.536000
 20
33.622000
 11
285.460000
 21
33.584000
  0
LINE
  8
1
  6
CONTINUOUS
 10
285.710000
 20
33.584000
 11
285.786000
 21
33.622000
  0
LINE
  8
1
  6
CONTINUOUS
 10
285.498000
 20
33.803000
 11
285.498000
 21
33.565000
  0
LINE
  8
1
  6
CONTINUOUS
 10
285.748000
 20
33.803000
 11
285.748000
 21
33.565000
  0
ARC
  8
1
  6
CONTINUOUS
 10
285.948000
 20
33.899333
 40
0.208333
 50
196.260206
 51
343.739797
  0
LINE
  8
1
  6
CONTINUOUS
 10
286.398000
 20
33.841000
 11
286.148000
 21
33.841000
  0
TEXT
  8
1
  6
CONTINUOUS
 40
0.075000
 10
285.826000
 20
33.468000
  1
0.40
  7
ROMANC
  0
LINE
  8
1
  6
CONTINUOUS
 10
285.598000
 20
33.506000
 11
285.748000
 21
33.506000
  0
LINE
  8
1
  6
CONTINUOUS
 10
286.298000
 20
33.506000
 11
286.148000
 21
33.506000
  0
LINE
  8
1
  6
CONTINUOUS
 10
285.786000
 20
33.525000
 11
285.710000
 21
33.487000
  0
LINE
  8
1
  6
CONTINUOUS
 10
286.110000
 20
33.487000
 11
286.186000
 21
33.525000
  0
LINE
  8
1
  6
CONTINUOUS
 10
285.748000
 20
33.803000
 11
285.748000
 21
33.468000
  0
LINE
  8
1
  6
CONTINUOUS
 10
286.148000
 20
33.803000
 11
286.148000
 21
33.468000
  0
TEXT
  8
1
  6
CONTINUOUS
 40
0.075000
 10
286.642000
 20
33.566000
  1
0.25
  7
ROMANC
  0
LINE
  8
1
  6
CONTINUOUS
 10
285.998000
 20
33.603000
 11
286.148000
 21
33.603000
  0
LINE
  8
1
  6
CONTINUOUS
 10
286.604000
 20
33.603000
 11
286.398000
 21
33.603000
  0
LINE
  8
1
  6
CONTINUOUS
 10
286.186000
 20
33.622000
 11
286.110000
 21
33.584000
  0
LINE
  8
1
  6
CONTINUOUS
 10
286.360000
 20
33.584000
 11
286.436000
 21
33.622000
  0
LINE
  8
1
  6
CONTINUOUS
 10
286.148000
 20
33.803000
 11
286.148000
 21
33.565000
  0
LINE
  8
1
  6
CONTINUOUS
 10
286.398000
 20
33.803000
 11
286.398000
 21
33.565000
  0
TEXT
  8
1
  6
CONTINUOUS
 40
0.075000
 10
286.654000
 20
33.990000
  1
0.15
 50
90.000000
  7
ROMANC
  0
LINE
  8
1
  6
CONTINUOUS
 10
286.616000
 20
33.541000
 11
286.616000
 21
33.691000
  0
LINE
  8
1
  6
CONTINUOUS
 10
286.616000
 20
33.952000
 11
286.616000
 21
33.841000
  0
LINE
  8
1
  6
CONTINUOUS
 10
286.597000
 20
33.728000
 11
286.635000
 21
33.654000
  0
LINE
  8
1
  6
CONTINUOUS
 10
286.635000
 20
33.804000
 11
286.597000
 21
33.878000
  0
LINE
  8
1
  6
CONTINUOUS
 10
285.986000
 20
33.691000
 11
286.654000
 21
33.691000
  0
LINE
  8
1
  6
CONTINUOUS
 10
286.436000
 20
33.841000
 11
286.654000
 21
33.841000
  0
ARC
  8
1
  6
CONTINUOUS
 10
285.948000
 20
34.641000
 40
0.550000
 50
0.000000
 51
180.000000
  0
TEXT
  8
1
  6
CONTINUOUS
 40
0.075000
 10
286.770000
 20
34.122000
  1
0.80
 50
90.000000
  7
ROMANC
  0
LINE
  8
1
  6
CONTINUOUS
 10
286.732000
 20
34.084000
 11
286.732000
 21
33.841000
  0
LINE
  8
1
  6
CONTINUOUS
 10
286.732000
 20
34.396000
 11
286.732000
 21
34.641000
  0
LINE
  8
1
  6
CONTINUOUS
 10
286.751000
 20
33.804000
 11
286.713000
 21
33.878000
  0
LINE
  8
1
  6
CONTINUOUS
 10
286.713000
 20
34.678000
 11
286.751000
 21
34.604000
  0
LINE
  8
1
  6
CONTINUOUS
 10
286.436000
 20
33.841000
 11
286.770000
 21
33.841000
  0
LINE
  8
1
  6
CONTINUOUS
 10
286.536000
 20
34.641000
 11
286.770000
 21
34.641000
  0
TEXT
  8
1
  6
CONTINUOUS
 40
0.075000
 10
286.770000
 20
34.797000
  1
0.55
 50
90.000000
  7
ROMANC
  0
LINE
  8
1
  6
CONTINUOUS
 10
286.732000
 20
34.491000
 11
286.732000
 21
34.641000
  0
LINE
  8
1
  6
CONTINUOUS
 10
286.732000
 20
35.341000
 11
286.732000
 21
35.191000
  0
LINE
  8
1
  6
CONTINUOUS
 10
286.713000
 20
34.678000
 11
286.751000
 21
34.604000
  0
LINE
  8
1
  6
CONTINUOUS
 10
286.751000
 20
35.154000
 11
286.713000
 21
35.228000
  0
LINE
  8
1
  6
CONTINUOUS
 10
285.986000
 20
35.191000
 11
286.770000
 21
35.191000
  0
TEXT
  8
1
  6
CONTINUOUS
 40
0.075000
 10
285.829000
 20
33.326000
  1
0.90
  7
ROMANC
  0
LINE
  8
1
  6
CONTINUOUS
 10
285.791000
 20
33.363000
 11
285.498000
 21
33.363000
  0
LINE
  8
1
  6
CONTINUOUS
 10
286.103000
 20
33.363000
 11
286.398000
 21
33.363000
  0
LINE
  8
1
  6
CONTINUOUS
 10
285.460000
 20
33.344000
 11
285.536000
 21
33.382000
  0
LINE
  8
1
  6
CONTINUOUS
 10
286.436000
 20
33.382000
 11
286.360000
 21
33.344000
  0
LINE
  8
1
  6
CONTINUOUS
 10
285.498000
 20
33.803000
 11
285.498000
 21
33.325000
  0
LINE
  8
1
  6
CONTINUOUS
 10
286.398000
 20
33.803000
 11
286.398000
 21
33.325000
  0
TEXT
  8
1
  6
CONTINUOUS
 40
0.075000
 10
286.892000
 20
34.331000
  1
1.50
 50
90.000000
  7
ROMANC
  0
LINE
  8
1
  6
CONTINUOUS
 10
286.855000
 20
34.293000
 11
286.855000
 21
33.691000
  0
LINE
  8
1
  6
CONTINUOUS
 10
286.855000
 20
34.588000
 11
286.855000
 21
35.191000
  0
LINE
  8
1
  6
CONTINUOUS
 10
286.874000
 20
33.654000
 11
286.836000
 21
33.728000
  0
LINE
  8
1
  6
CONTINUOUS
 10
286.836000
 20
35.228000
 11
286.874000
 21
35.154000
  0
LINE
  8
1
  6
CONTINUOUS
 10
285.986000
 20
33.691000
 11
286.893000
 21
33.691000
  0
LINE
  8
1
  6
CONTINUOUS
 10
285.986000
 20
35.191000
 11
286.893000
 21
35.191000
  0
TEXT
  8
1
  6
CONTINUOUS
 40
0.075000
 10
285.847000
 20
35.320000
  1
1.10
  7
ROMANC
  0
LINE
  8
1
  6
CONTINUOUS
 10
285.809000
 20
35.358000
 11
285.398000
 21
35.358000
  0
LINE
  8
1
  6
CONTINUOUS
 10
286.086000
 20
35.358000
 11
286.498000
 21
35.358000
  0
LINE
  8
1
  6
CONTINUOUS
 10
285.360000
 20
35.339000
 11
285.436000
 21
35.377000
  0
LINE
  8
1
  6
CONTINUOUS
 10
286.536000
 20
35.377000
 11
286.460000
 21
35.339000
  0
LINE
  8
1
  6
CONTINUOUS
 10
285.398000
 20
34.679000
 11
285.398000
 21
35.396000
  0
LINE
  8
1
  6
CONTINUOUS
 10
286.498000
 20
34.679000
 11
286.498000
 21
35.396000
  0
LINE
  8
1
  6
CONTINUOUS
 10
285.489000
 20
33.831000
 11
285.388000
 21
34.639000
  0
LINE
  8
1
  6
CONTINUOUS
 10
285.480000
 20
33.821000
 11
285.378000
 21
34.638000
  0
LINE
  8
1
  6
CONTINUOUS
 10
285.741000
 20
33.831000
 11
285.489000
 21
33.831000
  0
LINE
  8
1
  6
CONTINUOUS
 10
285.734000
 20
33.821000
 11
285.480000
 21
33.821000
  0
ARC
  8
1
  6
CONTINUOUS
 10
285.948000
 20
33.899333
 40
0.218333
 50
198.238736
 51
341.761264
  0
ARC
  8
1
  6
CONTINUOUS
 10
285.948000
 20
33.899333
 40
0.228333
 50
200.063764
 51
339.936236
  0
LINE
  8
1
  6
CONTINUOUS
 10
286.406000
 20
33.831000
 11
286.155000
 21
33.831000
  0
LINE
  8
1
  6
CONTINUOUS
 10
286.415000
 20
33.821000
 11
286.162000
 21
33.821000
  0
LINE
  8
1
  6
CONTINUOUS
 10
286.508000
 20
34.647000
 11
286.406000
 21
33.831000
  0
LINE
  8
1
  6
CONTINUOUS
 10
286.518000
 20
34.646000
 11
286.415000
 21
33.821000
  0
ARC
  8
1
  6
CONTINUOUS
 10
285.948000
 20
34.641000
 40
0.560000
 50
0.589622
 51
180.207639
  0
ARC
  8
1
  6
CONTINUOUS
 10
285.948000
 20
34.641000
 40
0.570000
 50
0.487008
 51
180.308197
  0
ENDSEC
  0
EOF
