  0
SECTION
  2
HEADER
  9
$ACADVER
  1
AC1009
  9
$INSBASE
 10
0.0
 20
0.0
 30
0.0
  9
$EXTMIN
 10
281.396000
 20
29.897000
 30
-2147483.648000
  9
$EXTMAX
 10
291.896000
 20
44.747000
 30
0.000000
  9
$LIMMIN
 10
280.396000
 20
28.897000
  9
$LIMMAX
 10
292.896000
 20
43.747000
  9
$ORTHOMODE
 70
     0
  9
$REGENMODE
 70
     1
  9
$FILLMODE
 70
     1
  9
$QTEXTMODE
 70
     0
  9
$MIRRTEXT
 70
     1
  9
$DRAGMODE
 70
     2
  9
$LTSCALE
 40
1.0
  9
$OSMODE
 70
     0
  9
$ATTMODE
 70
     1
  9
$TEXTSIZE
 40
0.2
  9
$TRACEWID
 40
0.05
  9
$TEXTSTYLE
  7
STANDARD
  9
$CLAYER
  8
0
  9
$CELTYPE
  6
BYLAYER
  9
$CECOLOR
 62
   256
  9
$DIMSCALE
 40
1.0
  9
$DIMASZ
 40
0.18
  9
$DIMEXO
 40
0.0625
  9
$DIMDLI
 40
0.38
  9
$DIMRND
 40
0.0
  9
$DIMDLE
 40
0.0
  9
$DIMEXE
 40
0.18
  9
$DIMTP
 40
0.0
  9
$DIMTM
 40
0.0
  9
$DIMTXT
 40
0.18
  9
$DIMCEN
 40
0.09
  9
$DIMTSZ
 40
0.0
  9
$DIMTOL
 70
     0
  9
$DIMLIM
 70
     0
  9
$DIMTIH
 70
     1
  9
$DIMTOH
 70
     1
  9
$DIMSE1
 70
     0
  9
$DIMSE2
 70
     0
  9
$DIMTAD
 70
     0
  9
$DIMZIN
 70
     0
  9
$DIMBLK
  1

  9
$DIMASO
 70
     1
  9
$DIMSHO
 70
     1
  9
$DIMPOST
  1

  9
$DIMAPOST
  1

  9
$DIMALT
 70
     0
  9
$DIMALTD
 70
     2
  9
$DIMALTF
 40
25.4
  9
$DIMLFAC
 40
1.0
  9
$DIMTOFL
 70
     0
  9
$DIMTVP
 40
0.0
  9
$DIMTIX
 70
     0
  9
$DIMSOXD
 70
     0
  9
$DIMSAH
 70
     0
  9
$DIMBLK1
  1

  9
$DIMBLK2
  1

  9
$DIMSTYLE
  2
*UNNAMED
  9
$DIMCLRD
 70
     0
  9
$DIMCLRE
 70
     0
  9
$DIMCLRT
 70
     0
  9
$DIMTFAC
 40
1.0
  9
$DIMGAP
 40
0.09
  9
$LUNITS
 70
     2
  9
$LUPREC
 70
     4
  9
$AXISMODE
 70
     0
  9
$AXISUNIT
 10
0.0
 20
0.0
  9
$SKETCHINC
 40
0.1
  9
$FILLETRAD
 40
0.0
  9
$AUNITS
 70
     0
  9
$AUPREC
 70
     0
  9
$MENU
  1
acad
  9
$ELEVATION
 40
0.0
  9
$PELEVATION
 40
0.0
  9
$THICKNESS
 40
0.0
  9
$LIMCHECK
 70
     0
  9
$BLIPMODE
 70
     1
  9
$CHAMFERA
 40
0.0
  9
$CHAMFERB
 40
0.0
  9
$SKPOLY
 70
     0
  9
$TDCREATE
 40
2448315.373408102
  9
$TDUPDATE
 40
2448315.373408102
  9
$TDINDWG
 40
0.0000000000
  9
$TDUSRTIMER
 40
0.0000000000
  9
$USRTIMER
 70
     1
  9
$ANGBASE
 50
0.0
  9
$ANGDIR
 70
     0
  9
$PDMODE
 70
     0
  9
$PDSIZE
 40
0.0
  9
$PLINEWID
 40
0.0
  9
$COORDS
 70
     0
  9
$SPLFRAME
 70
     0
  9
$SPLINETYPE
 70
     6
  9
$SPLINESEGS
 70
     8
  9
$ATTDIA
 70
     0
  9
$ATTREQ
 70
     1
  9
$HANDLING
 70
     0
  9
$HANDSEED
  5
0
  9
$SURFTAB1
 70
     6
  9
$SURFTAB2
 70
     6
  9
$SURFTYPE
 70
     6
  9
$SURFU
 70
     6
  9
$SURFV
 70
     6
  9
$UCSNAME
  2

  9
$UCSORG
 10
0.0
 20
0.0
 30
0.0
  9
$UCSXDIR
 10
1.0
 20
0.0
 30
0.0
  9
$UCSYDIR
 10
0.0
 20
1.0
 30
0.0
  9
$PUCSNAME
  2

  9
$PUCSORG
 10
0.0
 20
0.0
 30
0.0
  9
$PUCSXDIR
 10
1.0
 20
0.0
 30
0.0
  9
$PUCSYDIR
 10
0.0
 20
1.0
 30
0.0
  9
$USERI1
 70
     0
  9
$USERI2
 70
     0
  9
$USERI3
 70
     0
  9
$USERI4
 70
     0
  9
$USERI5
 70
     0
  9
$USERR1
 40
0.0
  9
$USERR2
 40
0.0
  9
$USERR3
 40
0.0
  9
$USERR4
 40
0.0
  9
$USERR5
 40
0.0
  9
$WORLDVIEW
 70
     1
  9
$SHADEDGE
 70
     3
  9
$SHADEDIF
 70
    70
  9
$TILEMODE
 70
     1
  9
$MAXACTVP
 70
    16
  9
$PINSBASE
 10
0.0
 20
0.0
 30
0.0
  9
$PLIMCHECK
 70
     0
  9
$PEXTMIN
 10
1.000000E+20
 20
1.000000E+20
 30
1.000000E+20
  9
$PEXTMAX
 10
-1.000000E+20
 20
-1.000000E+20
 30
-1.000000E+20
  9
$PLIMMIN
 10
0.0
 20
0.0
  9
$PLIMMAX
 10
12.0
 20
9.0
  9
$UNITMODE
 70
     0
  9
$VISRETAIN
 70
     0
  0
ENDSEC
  0
SECTION
  2
TABLES
  0
TABLE
  2
LTYPE
 70
    1
  0
LTYPE
  2
CONTINUOUS
 70
    64
3
Solid line
 72
    65
 73
0
 40
0.000000
  0
ENDTAB
  0
TABLE
  2
LAYER
 70
    8
  0
LAYER
  2
0
 70
    64
 62
7
  6
CONTINUOUS
  0
LAYER
  2
1
 70
    64
 62
7
  6
CONTINUOUS
  0
LAYER
  2
7
 70
    64
 62
7
  6
CONTINUOUS
  0
LAYER
  2
8
 70
    64
 62
7
  6
CONTINUOUS
  0
LAYER
  2
9
 70
    64
 62
7
  6
CONTINUOUS
  0
LAYER
  2
22
 70
    64
 62
7
  6
CONTINUOUS
  0
LAYER
  2
25
 70
    64
 62
7
  6
CONTINUOUS
  0
LAYER
  2
0
 70
    64
 62
7
  6
CONTINUOUS
  0
ENDTAB
  0
TABLE
  2
STYLE
 70
    1
  0
STYLE
  2
ROMANC
70
     0
 40
0.0
 41
1.0
 50
0.0
 71
     0
 42
0.2
  3
ROMANC
  4

  0
ENDTAB
  0
ENDSEC
  0
SECTION
  2
BLOCKS
  0
ENDSEC
  0
SECTION
  2
ENTITIES
  0
TEXT
  8
0
  6
CONTINUOUS
 40
0.100000
 10
286.909000
 20
41.324000
  1
2
  7
ROMANC
  0
TEXT
  8
0
  6
CONTINUOUS
 40
0.300000
 10
283.926000
 20
41.768000
  1
ESCALA  1:50
  7
ROMANC
  0
POLYLINE
  8
0
  6
CONTINUOUS
 66
     1
 70
     1
  0
VERTEX
  8
0
  6
CONTINUOUS
 10
281.396000
 20
44.747000
  0
VERTEX
  8
0
  6
CONTINUOUS
 10
291.896000
 20
44.747000
  0
VERTEX
  8
0
  6
CONTINUOUS
 10
291.896000
 20
29.897000
  0
VERTEX
  8
0
  6
CONTINUOUS
 10
281.396000
 20
29.897000
  0
SEQEND
  8
0
  0
TEXT
  8
0
  6
CONTINUOUS
 40
0.300000
 10
283.926000
 20
42.381000
  1
TIPUS   T1200
  7
ROMANC
  0
LINE
  8
1
  6
CONTINUOUS
 10
283.848000
 20
34.364000
 11
289.848000
 21
34.364000
  0
LINE
  8
1
  6
CONTINUOUS
 10
283.848000
 20
32.404000
 11
283.848000
 21
34.364000
  0
TEXT
  8
0
  6
CONTINUOUS
 40
0.300000
 10
283.922000
 20
40.529000
  1
P = 161 dm
  7
ROMANC
  0
TEXT
  8
0
  6
CONTINUOUS
 40
0.300000
 10
283.945000
 20
41.099000
  1
S =1200 dm
  7
ROMANC
  0
LINE
  8
1
  6
CONTINUOUS
 10
286.648000
 20
32.348000
 11
283.848000
 21
32.404000
  0
LINE
  8
1
  6
CONTINUOUS
 10
289.848000
 20
32.404000
 11
287.048000
 21
32.348000
  0
TEXT
  8
1
  6
CONTINUOUS
 40
0.075000
 10
286.729000
 20
31.916000
  1
6.00
  7
ROMANC
  0
LINE
  8
1
  6
CONTINUOUS
 10
286.691000
 20
31.953000
 11
283.848000
 21
31.953000
  0
LINE
  8
1
  6
CONTINUOUS
 10
287.003000
 20
31.953000
 11
289.848000
 21
31.953000
  0
LINE
  8
1
  6
CONTINUOUS
 10
283.810000
 20
31.934000
 11
283.886000
 21
31.972000
  0
LINE
  8
1
  6
CONTINUOUS
 10
289.886000
 20
31.972000
 11
289.810000
 21
31.934000
  0
LINE
  8
1
  6
CONTINUOUS
 10
283.848000
 20
32.366000
 11
283.848000
 21
31.915000
  0
LINE
  8
1
  6
CONTINUOUS
 10
289.848000
 20
32.366000
 11
289.848000
 21
31.915000
  0
ARC
  8
1
  6
CONTINUOUS
 10
286.848000
 20
32.348000
 40
0.200000
 50
180.000000
 51
360.000000
  0
TEXT
  8
1
  6
CONTINUOUS
 40
0.075000
 10
286.726000
 20
32.514000
  1
0.40
  7
ROMANC
  0
LINE
  8
1
  6
CONTINUOUS
 10
286.498000
 20
32.551000
 11
286.648000
 21
32.551000
  0
LINE
  8
1
  6
CONTINUOUS
 10
287.198000
 20
32.551000
 11
287.048000
 21
32.551000
  0
LINE
  8
1
  6
CONTINUOUS
 10
286.686000
 20
32.570000
 11
286.610000
 21
32.532000
  0
LINE
  8
1
  6
CONTINUOUS
 10
287.010000
 20
32.532000
 11
287.086000
 21
32.570000
  0
LINE
  8
1
  6
CONTINUOUS
 10
286.648000
 20
32.386000
 11
286.648000
 21
32.589000
  0
LINE
  8
1
  6
CONTINUOUS
 10
287.048000
 20
32.386000
 11
287.048000
 21
32.589000
  0
TEXT
  8
1
  6
CONTINUOUS
 40
0.075000
 10
290.030000
 20
32.639000
  1
0.20
 50
90.000000
  7
ROMANC
  0
LINE
  8
1
  6
CONTINUOUS
 10
289.993000
 20
31.998000
 11
289.993000
 21
32.148000
  0
LINE
  8
1
  6
CONTINUOUS
 10
289.993000
 20
32.601000
 11
289.993000
 21
32.348000
  0
LINE
  8
1
  6
CONTINUOUS
 10
289.974000
 20
32.186000
 11
290.012000
 21
32.110000
  0
LINE
  8
1
  6
CONTINUOUS
 10
290.012000
 20
32.310000
 11
289.974000
 21
32.386000
  0
LINE
  8
1
  6
CONTINUOUS
 10
286.886000
 20
32.148000
 11
290.031000
 21
32.148000
  0
LINE
  8
1
  6
CONTINUOUS
 10
287.086000
 20
32.348000
 11
290.031000
 21
32.348000
  0
LINE
  8
1
  6
CONTINUOUS
 10
289.848000
 20
34.364000
 11
289.848000
 21
32.404000
  0
TEXT
  8
1
  6
CONTINUOUS
 40
0.075000
 10
290.222000
 20
32.633000
  1
0.06
 50
90.000000
  7
ROMANC
  0
LINE
  8
1
  6
CONTINUOUS
 10
290.185000
 20
32.198000
 11
290.185000
 21
32.348000
  0
LINE
  8
1
  6
CONTINUOUS
 10
290.185000
 20
32.595000
 11
290.185000
 21
32.404000
  0
LINE
  8
1
  6
CONTINUOUS
 10
290.166000
 20
32.386000
 11
290.204000
 21
32.310000
  0
LINE
  8
1
  6
CONTINUOUS
 10
290.204000
 20
32.366000
 11
290.166000
 21
32.442000
  0
LINE
  8
1
  6
CONTINUOUS
 10
287.086000
 20
32.348000
 11
290.223000
 21
32.348000
  0
LINE
  8
1
  6
CONTINUOUS
 10
289.886000
 20
32.404000
 11
290.223000
 21
32.404000
  0
TEXT
  8
1
  6
CONTINUOUS
 40
0.075000
 10
290.414000
 20
33.274000
  1
1.96
 50
90.000000
  7
ROMANC
  0
LINE
  8
1
  6
CONTINUOUS
 10
290.377000
 20
33.236000
 11
290.377000
 21
32.404000
  0
LINE
  8
1
  6
CONTINUOUS
 10
290.377000
 20
33.531000
 11
290.377000
 21
34.364000
  0
LINE
  8
1
  6
CONTINUOUS
 10
290.396000
 20
32.366000
 11
290.358000
 21
32.442000
  0
LINE
  8
1
  6
CONTINUOUS
 10
290.358000
 20
34.402000
 11
290.396000
 21
34.326000
  0
LINE
  8
1
  6
CONTINUOUS
 10
289.886000
 20
32.404000
 11
290.415000
 21
32.404000
  0
LINE
  8
1
  6
CONTINUOUS
 10
289.886000
 20
34.364000
 11
290.415000
 21
34.364000
  0
TEXT
  8
1
  6
CONTINUOUS
 40
0.075000
 10
290.640000
 20
33.109000
  1
2.216
 50
90.000000
  7
ROMANC
  0
LINE
  8
1
  6
CONTINUOUS
 10
290.603000
 20
33.071000
 11
290.603000
 21
32.148000
  0
LINE
  8
1
  6
CONTINUOUS
 10
290.603000
 20
33.440000
 11
290.603000
 21
34.364000
  0
LINE
  8
1
  6
CONTINUOUS
 10
290.622000
 20
32.110000
 11
290.584000
 21
32.186000
  0
LINE
  8
1
  6
CONTINUOUS
 10
290.584000
 20
34.402000
 11
290.622000
 21
34.326000
  0
LINE
  8
1
  6
CONTINUOUS
 10
286.886000
 20
32.148000
 11
290.641000
 21
32.148000
  0
LINE
  8
1
  6
CONTINUOUS
 10
286.886000
 20
34.364000
 11
290.641000
 21
34.364000
  0
LINE
  8
1
  6
CONTINUOUS
 10
283.838000
 20
34.374000
 11
289.858000
 21
34.374000
  0
LINE
  8
1
  6
CONTINUOUS
 10
283.828000
 20
34.384000
 11
289.868000
 21
34.384000
  0
LINE
  8
1
  6
CONTINUOUS
 10
289.858000
 20
34.374000
 11
289.858000
 21
32.394000
  0
LINE
  8
1
  6
CONTINUOUS
 10
289.868000
 20
34.384000
 11
289.868000
 21
32.384000
  0
LINE
  8
1
  6
CONTINUOUS
 10
289.858000
 20
32.394000
 11
287.058000
 21
32.338000
  0
LINE
  8
1
  6
CONTINUOUS
 10
289.868000
 20
32.384000
 11
287.067000
 21
32.328000
  0
ARC
  8
1
  6
CONTINUOUS
 10
286.848000
 20
32.348000
 40
0.210000
 50
182.681647
 51
357.323975
  0
ARC
  8
1
  6
CONTINUOUS
 10
286.848000
 20
32.348000
 40
0.220000
 50
185.121772
 51
354.884106
  0
LINE
  8
1
  6
CONTINUOUS
 10
286.638000
 20
32.338000
 11
283.838000
 21
32.394000
  0
LINE
  8
1
  6
CONTINUOUS
 10
286.629000
 20
32.328000
 11
283.828000
 21
32.384000
  0
LINE
  8
1
  6
CONTINUOUS
 10
283.838000
 20
32.394000
 11
283.838000
 21
34.374000
  0
LINE
  8
1
  6
CONTINUOUS
 10
283.828000
 20
32.384000
 11
283.828000
 21
34.384000
  0
ENDSEC
  0
EOF
