  0
SECTION
  2
HEADER
  9
$ACADVER
  1
AC1009
  9
$INSBASE
 10
160.087195
 20
216.151256
 30
0.0
  9
$EXTMIN
 10
160.087195
 20
216.151256
 30
0.0
  9
$EXTMAX
 10
170.587195
 20
231.001256
 30
0.0
  9
$LIMMIN
 10
0.0
 20
0.0
  9
$LIMMAX
 10
410.0
 20
287.0
  9
$ORTHOMODE
 70
     0
  9
$REGENMODE
 70
     1
  9
$FILLMODE
 70
     1
  9
$QTEXTMODE
 70
     0
  9
$MIRRTEXT
 70
     1
  9
$DRAGMODE
 70
     2
  9
$LTSCALE
 40
25.0
  9
$OSMODE
 70
    32
  9
$ATTMODE
 70
     1
  9
$TEXTSIZE
 40
0.1
  9
$TRACEWID
 40
0.3
  9
$TEXTSTYLE
  7
STANDARD
  9
$CLAYER
  8
0
  9
$CELTYPE
  6
BYLAYER
  9
$CECOLOR
 62
   256
  9
$DIMSCALE
 40
1.0
  9
$DIMASZ
 40
3.5
  9
$DIMEXO
 40
0.1
  9
$DIMDLI
 40
7.0
  9
$DIMRND
 40
0.0
  9
$DIMDLE
 40
0.0
  9
$DIMEXE
 40
1.8
  9
$DIMTP
 40
0.0
  9
$DIMTM
 40
0.0
  9
$DIMTXT
 40
3.5
  9
$DIMCEN
 40
1.5
  9
$DIMTSZ
 40
0.0
  9
$DIMTOL
 70
     0
  9
$DIMLIM
 70
     0
  9
$DIMTIH
 70
     0
  9
$DIMTOH
 70
     0
  9
$DIMSE1
 70
     0
  9
$DIMSE2
 70
     0
  9
$DIMTAD
 70
     0
  9
$DIMZIN
 70
     0
  9
$DIMBLK
  1

  9
$DIMASO
 70
     1
  9
$DIMSHO
 70
     0
  9
$DIMPOST
  1

  9
$DIMAPOST
  1

  9
$DIMALT
 70
     0
  9
$DIMALTD
 70
     2
  9
$DIMALTF
 40
25.4
  9
$DIMLFAC
 40
1.0
  9
$DIMTOFL
 70
     0
  9
$DIMTVP
 40
0.0
  9
$DIMTIX
 70
     0
  9
$DIMSOXD
 70
     0
  9
$DIMSAH
 70
     0
  9
$DIMBLK1
  1

  9
$DIMBLK2
  1

  9
$DIMSTYLE
  2
*UNNAMED
  9
$DIMCLRD
 70
     0
  9
$DIMCLRE
 70
     0
  9
$DIMCLRT
 70
     0
  9
$DIMTFAC
 40
1.0
  9
$DIMGAP
 40
0.09
  9
$LUNITS
 70
     2
  9
$LUPREC
 70
     2
  9
$SKETCHINC
 40
1.0
  9
$FILLETRAD
 40
0.0
  9
$AUNITS
 70
     0
  9
$AUPREC
 70
     0
  9
$MENU
  1
acad
  9
$ELEVATION
 40
0.0
  9
$PELEVATION
 40
0.0
  9
$THICKNESS
 40
0.0
  9
$LIMCHECK
 70
     0
  9
$BLIPMODE
 70
     0
  9
$CHAMFERA
 40
0.0
  9
$CHAMFERB
 40
0.0
  9
$SKPOLY
 70
     0
  9
$TDCREATE
 40
2449960.558442129
  9
$TDUPDATE
 40
2450723.520916088
  9
$TDINDWG
 40
0.0033451389
  9
$TDUSRTIMER
 40
0.0033451389
  9
$USRTIMER
 70
     1
  9
$ANGBASE
 50
0.0
  9
$ANGDIR
 70
     0
  9
$PDMODE
 70
     0
  9
$PDSIZE
 40
0.0
  9
$PLINEWID
 40
0.0
  9
$COORDS
 70
     2
  9
$SPLFRAME
 70
     0
  9
$SPLINETYPE
 70
     6
  9
$SPLINESEGS
 70
     8
  9
$ATTDIA
 70
     0
  9
$ATTREQ
 70
     1
  9
$HANDLING
 70
     0
  9
$HANDSEED
  5
0
  9
$SURFTAB1
 70
     6
  9
$SURFTAB2
 70
     6
  9
$SURFTYPE
 70
     6
  9
$SURFU
 70
     6
  9
$SURFV
 70
     6
  9
$UCSNAME
  2

  9
$UCSORG
 10
0.0
 20
0.0
 30
0.0
  9
$UCSXDIR
 10
1.0
 20
0.0
 30
0.0
  9
$UCSYDIR
 10
0.0
 20
1.0
 30
0.0
  9
$PUCSNAME
  2

  9
$PUCSORG
 10
0.0
 20
0.0
 30
0.0
  9
$PUCSXDIR
 10
1.0
 20
0.0
 30
0.0
  9
$PUCSYDIR
 10
0.0
 20
1.0
 30
0.0
  9
$USERI1
 70
     0
  9
$USERI2
 70
     0
  9
$USERI3
 70
     0
  9
$USERI4
 70
     0
  9
$USERI5
 70
     0
  9
$USERR1
 40
0.0
  9
$USERR2
 40
0.0
  9
$USERR3
 40
0.0
  9
$USERR4
 40
0.0
  9
$USERR5
 40
0.0
  9
$WORLDVIEW
 70
     1
  9
$SHADEDGE
 70
     3
  9
$SHADEDIF
 70
    70
  9
$TILEMODE
 70
     1
  9
$MAXACTVP
 70
    16
  9
$PINSBASE
 10
0.0
 20
0.0
 30
0.0
  9
$PLIMCHECK
 70
     0
  9
$PEXTMIN
 10
1.000000E+20
 20
1.000000E+20
 30
1.000000E+20
  9
$PEXTMAX
 10
-1.000000E+20
 20
-1.000000E+20
 30
-1.000000E+20
  9
$PLIMMIN
 10
0.0
 20
0.0
  9
$PLIMMAX
 10
12.0
 20
9.0
  9
$UNITMODE
 70
     0
  9
$VISRETAIN
 70
     0
  9
$PLINEGEN
 70
     0
  9
$PSLTSCALE
 70
     0
  9
$TREEDEPTH
 70
  3020
  9
$DWGCODEPAGE
  3
iso8859-1
  0
ENDSEC
  0
SECTION
  2
TABLES
  0
TABLE
  2
VPORT
 70
     1
  0
VPORT
  2
*ACTIVE
 70
     0
 10
0.0
 20
0.0
 11
1.0
 21
1.0
 12
172.049045
 22
223.576256
 13
0.0
 23
0.0
 14
1.0
 24
1.0
 15
10.0
 25
10.0
 16
0.0
 26
0.0
 36
1.0
 17
0.0
 27
0.0
 37
0.0
 40
14.85
 41
1.611024
 42
50.0
 43
0.0
 44
0.0
 50
0.0
 51
0.0
 71
     0
 72
   100
 73
     1
 74
     0
 75
     0
 76
     0
 77
     0
 78
     0
  0
ENDTAB
  0
TABLE
  2
LTYPE
 70
     1
  0
LTYPE
  2
CONTINUOUS
 70
    64
  3
Solid Line
 72
    65
 73
     0
 40
0.0
  0
ENDTAB
  0
TABLE
  2
LAYER
 70
     5
  0
LAYER
  2
0
 70
    64
 62
     7
  6
CONTINUOUS
  0
LAYER
  2
SECCIO
 70
    64
 62
     7
  6
CONTINUOUS
  0
LAYER
  2
MESURA
 70
    64
 62
     7
  6
CONTINUOUS
  0
LAYER
  2
TEXTEP
 70
    64
 62
     7
  6
CONTINUOUS
  0
LAYER
  2
TEXTEG
 70
    64
 62
     7
  6
CONTINUOUS
  0
ENDTAB
  0
TABLE
  2
STYLE
 70
     2
  0
STYLE
  2
STANDARD
 70
    64
 40
0.0
 41
1.0
 50
0.0
 71
     0
 42
0.1
  3
txt
  4

  0
STYLE
  2
ROMANC
 70
    64
 40
0.0
 41
1.0
 50
0.0
 71
     0
 42
0.1
  3
romanc
  4

  0
ENDTAB
  0
TABLE
  2
VIEW
 70
     0
  0
ENDTAB
  0
TABLE
  2
UCS
 70
     0
  0
ENDTAB
  0
TABLE
  2
APPID
 70
     1
  0
APPID
  2
ACAD
 70
    64
  0
ENDTAB
  0
TABLE
  2
DIMSTYLE
 70
     0
  0
ENDTAB
  0
ENDSEC
  0
SECTION
  2
BLOCKS
  0
ENDSEC
  0
SECTION
  2
ENTITIES
  0
LINE
  8
0
 10
170.587195
 20
231.001256
 30
0.0
 11
170.587195
 21
216.151256
 31
0.0
  0
LINE
  8
0
 10
160.087195
 20
231.001256
 30
0.0
 11
160.087195
 21
216.151256
 31
0.0
  0
LINE
  8
0
 10
160.087195
 20
216.151256
 30
0.0
 11
170.587195
 21
216.151256
 31
0.0
  0
TEXT
  8
0
 10
161.996782
 20
227.228507
 30
0.0
 40
0.3
  1
P = 155.7 dm
  7
ROMANC
  0
TEXT
  8
0
 10
161.99961
 20
227.902005
 30
0.0
 40
0.3
  1
S = 1185 dm
  7
ROMANC
  0
LINE
  8
SECCIO
 10
161.446144
 20
219.664657
 30
0.0
 11
167.630246
 21
219.664657
 31
0.0
  0
LINE
  8
0
 10
160.087195
 20
231.001256
 30
0.0
 11
170.587195
 21
231.001256
 31
0.0
  0
LINE
  8
MESURA
 10
161.471607
 20
219.629628
 30
0.0
 11
161.554997
 21
219.690238
 31
0.0
  0
LINE
  8
MESURA
 10
161.517971
 20
220.164657
 30
0.0
 11
161.517971
 21
219.583509
 31
0.0
  0
TEXT
  8
TEXTEP
 10
164.034409
 20
219.48334
 30
0.0
 40
0.1
  1
6.0
  0
TEXT
  8
TEXTEP
 10
167.139074
 20
222.402407
 30
0.0
 40
0.1
  1
0.5
  0
TEXT
  8
TEXTEP
 10
168.066799
 20
221.934255
 30
0.0
 40
0.1
  1
0.3
  0
TEXT
  8
TEXTEP
 10
168.075985
 20
221.062206
 30
0.0
 40
0.1
  1
1.7
  0
LINE
  8
MESURA
 10
167.982289
 20
220.136995
 30
0.0
 11
168.065679
 21
220.197605
 31
0.0
  0
LINE
  8
MESURA
 10
167.017971
 20
222.164657
 30
0.0
 11
167.017971
 21
222.448969
 31
0.0
  0
LINE
  8
MESURA
 10
167.517971
 20
221.864657
 30
0.0
 11
167.517971
 21
222.448969
 31
0.0
  0
LINE
  8
MESURA
 10
167.017971
 20
222.164657
 30
0.0
 11
168.101588
 21
222.164657
 31
0.0
  0
LINE
  8
MESURA
 10
167.517971
 20
221.864657
 30
0.0
 11
168.101588
 21
221.864657
 31
0.0
  0
LINE
  8
MESURA
 10
167.517971
 20
220.164657
 30
0.0
 11
168.141711
 21
220.164657
 31
0.0
  0
LINE
  8
MESURA
 10
167.517971
 20
220.164657
 30
0.0
 11
167.517971
 21
219.56671
 31
0.0
  0
LINE
  8
MESURA
 10
166.972688
 20
222.335505
 30
0.0
 11
167.056078
 21
222.396115
 31
0.0
  0
LINE
  8
MESURA
 10
167.975228
 20
221.833849
 30
0.0
 11
168.058618
 21
221.894459
 31
0.0
  0
LINE
  8
MESURA
 10
167.468146
 20
219.631213
 30
0.0
 11
167.551536
 21
219.691823
 31
0.0
  0
LINE
  8
MESURA
 10
167.977218
 20
222.132899
 30
0.0
 11
168.060608
 21
222.193509
 31
0.0
  0
LINE
  8
MESURA
 10
167.474429
 20
222.331961
 30
0.0
 11
167.55782
 21
222.392571
 31
0.0
  0
LINE
  8
SECCIO
 10
168.017971
 20
222.239397
 30
0.0
 11
168.017971
 21
220.069816
 31
0.0
  0
LINE
  8
SECCIO
 10
166.920656
 20
222.366838
 30
0.0
 11
167.594387
 21
222.366838
 31
0.0
  0
TEXT
  8
0
 10
165.507441
 20
228.207921
 30
0.0
 40
0.1
  1
2
  7
ROMANC
  0
LINE
  8
SECCIO
 10
168.520348
 20
222.239397
 30
0.0
 11
168.520348
 21
220.069816
 31
0.0
  0
TEXT
  8
TEXTEP
 10
168.578361
 20
221.268517
 30
0.0
 40
0.1
  1
2.0
  0
LINE
  8
MESURA
 10
168.484666
 20
220.136995
 30
0.0
 11
168.568056
 21
220.197605
 31
0.0
  0
LINE
  8
MESURA
 10
168.020348
 20
220.164657
 30
0.0
 11
168.644088
 21
220.164657
 31
0.0
  0
LINE
  8
MESURA
 10
167.520348
 20
222.164657
 30
0.0
 11
168.603965
 21
222.164657
 31
0.0
  0
LINE
  8
MESURA
 10
168.479595
 20
222.132899
 30
0.0
 11
168.562985
 21
222.193509
 31
0.0
  0
LINE
  8
SECCIO
 10
161.530132
 20
220.176818
 30
0.0
 11
161.530132
 21
221.857772
 31
0.0
  0
LINE
  8
SECCIO
 10
161.530132
 20
221.857772
 30
0.0
 11
162.021339
 21
222.152496
 31
0.0
  0
LINE
  8
SECCIO
 10
162.021339
 20
222.152496
 30
0.0
 11
167.014603
 21
222.152496
 31
0.0
  0
LINE
  8
SECCIO
 10
167.014603
 20
222.152496
 30
0.0
 11
167.50581
 21
221.857772
 31
0.0
  0
LINE
  8
SECCIO
 10
167.50581
 20
221.857772
 30
0.0
 11
167.50581
 21
220.176818
 31
0.0
  0
LINE
  8
SECCIO
 10
167.50581
 20
220.176818
 30
0.0
 11
161.530132
 21
220.176818
 31
0.0
  0
LINE
  8
SECCIO
 10
161.517971
 20
220.164657
 30
0.0
 11
161.517971
 21
221.864657
 31
0.0
  0
LINE
  8
SECCIO
 10
161.517971
 20
221.864657
 30
0.0
 11
162.017971
 21
222.164657
 31
0.0
  0
LINE
  8
SECCIO
 10
162.017971
 20
222.164657
 30
0.0
 11
167.017971
 21
222.164657
 31
0.0
  0
LINE
  8
SECCIO
 10
167.017971
 20
222.164657
 30
0.0
 11
167.517971
 21
221.864657
 31
0.0
  0
LINE
  8
SECCIO
 10
167.517971
 20
221.864657
 30
0.0
 11
167.517971
 21
220.164657
 31
0.0
  0
LINE
  8
SECCIO
 10
167.517971
 20
220.164657
 30
0.0
 11
161.517971
 21
220.164657
 31
0.0
  0
LINE
  8
SECCIO
 10
161.507971
 20
220.154657
 30
0.0
 11
161.507971
 21
221.870319
 31
0.0
  0
LINE
  8
SECCIO
 10
161.507971
 20
221.870319
 30
0.0
 11
162.015201
 21
222.174657
 31
0.0
  0
LINE
  8
SECCIO
 10
162.015201
 20
222.174657
 30
0.0
 11
167.020741
 21
222.174657
 31
0.0
  0
LINE
  8
SECCIO
 10
167.020741
 20
222.174657
 30
0.0
 11
167.527971
 21
221.870319
 31
0.0
  0
LINE
  8
SECCIO
 10
167.527971
 20
221.870319
 30
0.0
 11
167.527971
 21
220.154657
 31
0.0
  0
LINE
  8
SECCIO
 10
167.527971
 20
220.154657
 30
0.0
 11
161.507971
 21
220.154657
 31
0.0
  0
LINE
  8
SECCIO
 10
161.517971
 20
220.164657
 30
0.0
 11
161.517971
 21
221.864657
 31
0.0
  0
LINE
  8
SECCIO
 10
161.517971
 20
221.864657
 30
0.0
 11
162.017971
 21
222.164657
 31
0.0
  0
LINE
  8
SECCIO
 10
162.017971
 20
222.164657
 30
0.0
 11
167.017971
 21
222.164657
 31
0.0
  0
LINE
  8
SECCIO
 10
167.017971
 20
222.164657
 30
0.0
 11
167.517971
 21
221.864657
 31
0.0
  0
LINE
  8
SECCIO
 10
167.517971
 20
221.864657
 30
0.0
 11
167.517971
 21
220.164657
 31
0.0
  0
LINE
  8
SECCIO
 10
167.517971
 20
220.164657
 30
0.0
 11
161.517971
 21
220.164657
 31
0.0
  0
TEXT
  8
0
 10
161.99961
 20
229.279599
 30
0.0
 40
0.3
  1
TIPUS    T1185
  7
ROMANC
  0
TEXT
  8
0
 10
161.996782
 20
228.606101
 30
0.0
 40
0.3
  1
ESCALA    1:50
  7
ROMANC
  0
ENDSEC
  0
EOF
