  0
SECTION
  2
HEADER
  9
$ACADVER
  1
AC1009
  9
$INSBASE
 10
0.0
 20
0.0
 30
0.0
  9
$EXTMIN
 10
281.396000
 20
29.897000
 30
-2147483.648000
  9
$EXTMAX
 10
291.896000
 20
44.747000
 30
0.000000
  9
$LIMMIN
 10
280.396000
 20
28.897000
  9
$LIMMAX
 10
292.896000
 20
43.747000
  9
$ORTHOMODE
 70
     0
  9
$REGENMODE
 70
     1
  9
$FILLMODE
 70
     1
  9
$QTEXTMODE
 70
     0
  9
$MIRRTEXT
 70
     1
  9
$DRAGMODE
 70
     2
  9
$LTSCALE
 40
1.0
  9
$OSMODE
 70
     0
  9
$ATTMODE
 70
     1
  9
$TEXTSIZE
 40
0.2
  9
$TRACEWID
 40
0.05
  9
$TEXTSTYLE
  7
STANDARD
  9
$CLAYER
  8
0
  9
$CELTYPE
  6
BYLAYER
  9
$CECOLOR
 62
   256
  9
$DIMSCALE
 40
1.0
  9
$DIMASZ
 40
0.18
  9
$DIMEXO
 40
0.0625
  9
$DIMDLI
 40
0.38
  9
$DIMRND
 40
0.0
  9
$DIMDLE
 40
0.0
  9
$DIMEXE
 40
0.18
  9
$DIMTP
 40
0.0
  9
$DIMTM
 40
0.0
  9
$DIMTXT
 40
0.18
  9
$DIMCEN
 40
0.09
  9
$DIMTSZ
 40
0.0
  9
$DIMTOL
 70
     0
  9
$DIMLIM
 70
     0
  9
$DIMTIH
 70
     1
  9
$DIMTOH
 70
     1
  9
$DIMSE1
 70
     0
  9
$DIMSE2
 70
     0
  9
$DIMTAD
 70
     0
  9
$DIMZIN
 70
     0
  9
$DIMBLK
  1

  9
$DIMASO
 70
     1
  9
$DIMSHO
 70
     1
  9
$DIMPOST
  1

  9
$DIMAPOST
  1

  9
$DIMALT
 70
     0
  9
$DIMALTD
 70
     2
  9
$DIMALTF
 40
25.4
  9
$DIMLFAC
 40
1.0
  9
$DIMTOFL
 70
     0
  9
$DIMTVP
 40
0.0
  9
$DIMTIX
 70
     0
  9
$DIMSOXD
 70
     0
  9
$DIMSAH
 70
     0
  9
$DIMBLK1
  1

  9
$DIMBLK2
  1

  9
$DIMSTYLE
  2
*UNNAMED
  9
$DIMCLRD
 70
     0
  9
$DIMCLRE
 70
     0
  9
$DIMCLRT
 70
     0
  9
$DIMTFAC
 40
1.0
  9
$DIMGAP
 40
0.09
  9
$LUNITS
 70
     2
  9
$LUPREC
 70
     4
  9
$AXISMODE
 70
     0
  9
$AXISUNIT
 10
0.0
 20
0.0
  9
$SKETCHINC
 40
0.1
  9
$FILLETRAD
 40
0.0
  9
$AUNITS
 70
     0
  9
$AUPREC
 70
     0
  9
$MENU
  1
acad
  9
$ELEVATION
 40
0.0
  9
$PELEVATION
 40
0.0
  9
$THICKNESS
 40
0.0
  9
$LIMCHECK
 70
     0
  9
$BLIPMODE
 70
     1
  9
$CHAMFERA
 40
0.0
  9
$CHAMFERB
 40
0.0
  9
$SKPOLY
 70
     0
  9
$TDCREATE
 40
2448315.373408102
  9
$TDUPDATE
 40
2448315.373408102
  9
$TDINDWG
 40
0.0000000000
  9
$TDUSRTIMER
 40
0.0000000000
  9
$USRTIMER
 70
     1
  9
$ANGBASE
 50
0.0
  9
$ANGDIR
 70
     0
  9
$PDMODE
 70
     0
  9
$PDSIZE
 40
0.0
  9
$PLINEWID
 40
0.0
  9
$COORDS
 70
     0
  9
$SPLFRAME
 70
     0
  9
$SPLINETYPE
 70
     6
  9
$SPLINESEGS
 70
     8
  9
$ATTDIA
 70
     0
  9
$ATTREQ
 70
     1
  9
$HANDLING
 70
     0
  9
$HANDSEED
  5
0
  9
$SURFTAB1
 70
     6
  9
$SURFTAB2
 70
     6
  9
$SURFTYPE
 70
     6
  9
$SURFU
 70
     6
  9
$SURFV
 70
     6
  9
$UCSNAME
  2

  9
$UCSORG
 10
0.0
 20
0.0
 30
0.0
  9
$UCSXDIR
 10
1.0
 20
0.0
 30
0.0
  9
$UCSYDIR
 10
0.0
 20
1.0
 30
0.0
  9
$PUCSNAME
  2

  9
$PUCSORG
 10
0.0
 20
0.0
 30
0.0
  9
$PUCSXDIR
 10
1.0
 20
0.0
 30
0.0
  9
$PUCSYDIR
 10
0.0
 20
1.0
 30
0.0
  9
$USERI1
 70
     0
  9
$USERI2
 70
     0
  9
$USERI3
 70
     0
  9
$USERI4
 70
     0
  9
$USERI5
 70
     0
  9
$USERR1
 40
0.0
  9
$USERR2
 40
0.0
  9
$USERR3
 40
0.0
  9
$USERR4
 40
0.0
  9
$USERR5
 40
0.0
  9
$WORLDVIEW
 70
     1
  9
$SHADEDGE
 70
     3
  9
$SHADEDIF
 70
    70
  9
$TILEMODE
 70
     1
  9
$MAXACTVP
 70
    16
  9
$PINSBASE
 10
0.0
 20
0.0
 30
0.0
  9
$PLIMCHECK
 70
     0
  9
$PEXTMIN
 10
1.000000E+20
 20
1.000000E+20
 30
1.000000E+20
  9
$PEXTMAX
 10
-1.000000E+20
 20
-1.000000E+20
 30
-1.000000E+20
  9
$PLIMMIN
 10
0.0
 20
0.0
  9
$PLIMMAX
 10
12.0
 20
9.0
  9
$UNITMODE
 70
     0
  9
$VISRETAIN
 70
     0
  0
ENDSEC
  0
SECTION
  2
TABLES
  0
TABLE
  2
LTYPE
 70
    1
  0
LTYPE
  2
CONTINUOUS
 70
    64
3
Solid line
 72
    65
 73
0
 40
0.000000
  0
ENDTAB
  0
TABLE
  2
LAYER
 70
    8
  0
LAYER
  2
0
 70
    64
 62
7
  6
CONTINUOUS
  0
LAYER
  2
1
 70
    64
 62
7
  6
CONTINUOUS
  0
LAYER
  2
7
 70
    64
 62
7
  6
CONTINUOUS
  0
LAYER
  2
8
 70
    64
 62
7
  6
CONTINUOUS
  0
LAYER
  2
9
 70
    64
 62
7
  6
CONTINUOUS
  0
LAYER
  2
22
 70
    64
 62
7
  6
CONTINUOUS
  0
LAYER
  2
25
 70
    64
 62
7
  6
CONTINUOUS
  0
LAYER
  2
0
 70
    64
 62
7
  6
CONTINUOUS
  0
ENDTAB
  0
TABLE
  2
STYLE
 70
    1
  0
STYLE
  2
ROMANC
70
     0
 40
0.0
 41
1.0
 50
0.0
 71
     0
 42
0.2
  3
ROMANC
  4

  0
ENDTAB
  0
ENDSEC
  0
SECTION
  2
BLOCKS
  0
ENDSEC
  0
SECTION
  2
ENTITIES
  0
TEXT
  8
0
  6
CONTINUOUS
 40
0.100000
 10
286.909000
 20
41.324000
  1
2
  7
ROMANC
  0
TEXT
  8
0
  6
CONTINUOUS
 40
0.300000
 10
283.926000
 20
41.768000
  1
ESCALA  1:50
  7
ROMANC
  0
POLYLINE
  8
0
  6
CONTINUOUS
 66
     1
 70
     1
  0
VERTEX
  8
0
  6
CONTINUOUS
 10
281.396000
 20
44.747000
  0
VERTEX
  8
0
  6
CONTINUOUS
 10
291.896000
 20
44.747000
  0
VERTEX
  8
0
  6
CONTINUOUS
 10
291.896000
 20
29.897000
  0
VERTEX
  8
0
  6
CONTINUOUS
 10
281.396000
 20
29.897000
  0
SEQEND
  8
0
  0
TEXT
  8
0
  6
CONTINUOUS
 40
0.300000
 10
283.926000
 20
42.381000
  1
TIPUS   T118
  7
ROMANC
  0
TEXT
  8
0
  6
CONTINUOUS
 40
0.300000
 10
283.922000
 20
40.529000
  1
P = 44 dm
  7
ROMANC
  0
TEXT
  8
0
  6
CONTINUOUS
 40
0.300000
 10
283.945000
 20
41.099000
  1
S = 118 dm
  7
ROMANC
  0
LINE
  8
1
  6
CONTINUOUS
 10
285.296000
 20
34.835000
 11
285.146000
 21
35.935000
  0
ARC
  8
1
  6
CONTINUOUS
 10
285.596000
 20
34.893333
 40
0.208333
 50
196.260206
 51
343.739797
  0
TEXT
  8
1
  6
CONTINUOUS
 40
0.075000
 10
284.890000
 20
34.506000
  1
0.10
  7
ROMANC
  0
LINE
  8
1
  6
CONTINUOUS
 10
285.223000
 20
34.544000
 11
285.296000
 21
34.544000
  0
LINE
  8
1
  6
CONTINUOUS
 10
285.546000
 20
34.544000
 11
285.396000
 21
34.544000
  0
LINE
  8
1
  6
CONTINUOUS
 10
285.334000
 20
34.563000
 11
285.258000
 21
34.525000
  0
LINE
  8
1
  6
CONTINUOUS
 10
285.358000
 20
34.525000
 11
285.434000
 21
34.563000
  0
LINE
  8
1
  6
CONTINUOUS
 10
285.296000
 20
34.797000
 11
285.296000
 21
34.506000
  0
LINE
  8
1
  6
CONTINUOUS
 10
285.396000
 20
34.797000
 11
285.396000
 21
34.506000
  0
LINE
  8
1
  6
CONTINUOUS
 10
285.896000
 20
34.835000
 11
285.796000
 21
34.835000
  0
TEXT
  8
1
  6
CONTINUOUS
 40
0.075000
 10
285.474000
 20
34.398000
  1
0.40
  7
ROMANC
  0
LINE
  8
1
  6
CONTINUOUS
 10
285.246000
 20
34.436000
 11
285.396000
 21
34.436000
  0
LINE
  8
1
  6
CONTINUOUS
 10
285.946000
 20
34.436000
 11
285.796000
 21
34.436000
  0
LINE
  8
1
  6
CONTINUOUS
 10
285.434000
 20
34.455000
 11
285.358000
 21
34.417000
  0
LINE
  8
1
  6
CONTINUOUS
 10
285.758000
 20
34.417000
 11
285.834000
 21
34.455000
  0
LINE
  8
1
  6
CONTINUOUS
 10
285.396000
 20
34.797000
 11
285.396000
 21
34.398000
  0
LINE
  8
1
  6
CONTINUOUS
 10
285.796000
 20
34.797000
 11
285.796000
 21
34.398000
  0
LINE
  8
1
  6
CONTINUOUS
 10
286.046000
 20
35.935000
 11
285.896000
 21
34.835000
  0
TEXT
  8
1
  6
CONTINUOUS
 40
0.075000
 10
286.068000
 20
34.506000
  1
0.10
  7
ROMANC
  0
LINE
  8
1
  6
CONTINUOUS
 10
285.646000
 20
34.544000
 11
285.796000
 21
34.544000
  0
LINE
  8
1
  6
CONTINUOUS
 10
286.030000
 20
34.544000
 11
285.896000
 21
34.544000
  0
LINE
  8
1
  6
CONTINUOUS
 10
285.834000
 20
34.563000
 11
285.758000
 21
34.525000
  0
LINE
  8
1
  6
CONTINUOUS
 10
285.858000
 20
34.525000
 11
285.934000
 21
34.563000
  0
LINE
  8
1
  6
CONTINUOUS
 10
285.796000
 20
34.797000
 11
285.796000
 21
34.506000
  0
LINE
  8
1
  6
CONTINUOUS
 10
285.896000
 20
34.797000
 11
285.896000
 21
34.506000
  0
TEXT
  8
1
  6
CONTINUOUS
 40
0.075000
 10
286.082000
 20
34.942000
  1
0.15
 50
90.000000
  7
ROMANC
  0
LINE
  8
1
  6
CONTINUOUS
 10
286.044000
 20
34.535000
 11
286.044000
 21
34.685000
  0
LINE
  8
1
  6
CONTINUOUS
 10
286.044000
 20
34.904000
 11
286.044000
 21
34.835000
  0
LINE
  8
1
  6
CONTINUOUS
 10
286.025000
 20
34.722000
 11
286.063000
 21
34.648000
  0
LINE
  8
1
  6
CONTINUOUS
 10
286.063000
 20
34.798000
 11
286.025000
 21
34.872000
  0
LINE
  8
1
  6
CONTINUOUS
 10
285.634000
 20
34.685000
 11
286.082000
 21
34.685000
  0
LINE
  8
1
  6
CONTINUOUS
 10
285.934000
 20
34.835000
 11
286.082000
 21
34.835000
  0
ARC
  8
1
  6
CONTINUOUS
 10
285.596000
 20
35.935000
 40
0.450000
 50
0.000000
 51
180.000000
  0
TEXT
  8
1
  6
CONTINUOUS
 40
0.075000
 10
286.218000
 20
35.284000
  1
1.10
 50
90.000000
  7
ROMANC
  0
LINE
  8
1
  6
CONTINUOUS
 10
286.181000
 20
35.246000
 11
286.181000
 21
34.835000
  0
LINE
  8
1
  6
CONTINUOUS
 10
286.181000
 20
35.523000
 11
286.181000
 21
35.935000
  0
LINE
  8
1
  6
CONTINUOUS
 10
286.200000
 20
34.798000
 11
286.162000
 21
34.872000
  0
LINE
  8
1
  6
CONTINUOUS
 10
286.162000
 20
35.972000
 11
286.200000
 21
35.898000
  0
LINE
  8
1
  6
CONTINUOUS
 10
285.934000
 20
34.835000
 11
286.219000
 21
34.835000
  0
LINE
  8
1
  6
CONTINUOUS
 10
286.084000
 20
35.935000
 11
286.219000
 21
35.935000
  0
TEXT
  8
1
  6
CONTINUOUS
 40
0.075000
 10
286.218000
 20
36.038000
  1
0.45
 50
90.000000
  7
ROMANC
  0
LINE
  8
1
  6
CONTINUOUS
 10
286.181000
 20
35.785000
 11
286.181000
 21
35.935000
  0
LINE
  8
1
  6
CONTINUOUS
 10
286.181000
 20
36.535000
 11
286.181000
 21
36.385000
  0
LINE
  8
1
  6
CONTINUOUS
 10
286.162000
 20
35.972000
 11
286.200000
 21
35.898000
  0
LINE
  8
1
  6
CONTINUOUS
 10
286.200000
 20
36.348000
 11
286.162000
 21
36.422000
  0
LINE
  8
1
  6
CONTINUOUS
 10
285.634000
 20
36.385000
 11
286.219000
 21
36.385000
  0
TEXT
  8
1
  6
CONTINUOUS
 40
0.075000
 10
285.477000
 20
36.482000
  1
0.90
  7
ROMANC
  0
LINE
  8
1
  6
CONTINUOUS
 10
285.439000
 20
36.519000
 11
285.146000
 21
36.519000
  0
LINE
  8
1
  6
CONTINUOUS
 10
285.751000
 20
36.519000
 11
286.046000
 21
36.519000
  0
LINE
  8
1
  6
CONTINUOUS
 10
285.108000
 20
36.500000
 11
285.184000
 21
36.538000
  0
LINE
  8
1
  6
CONTINUOUS
 10
286.084000
 20
36.538000
 11
286.008000
 21
36.500000
  0
LINE
  8
1
  6
CONTINUOUS
 10
285.146000
 20
35.973000
 11
285.146000
 21
36.557000
  0
LINE
  8
1
  6
CONTINUOUS
 10
286.046000
 20
35.973000
 11
286.046000
 21
36.557000
  0
LINE
  8
1
  6
CONTINUOUS
 10
285.396000
 20
34.835000
 11
285.296000
 21
34.835000
  0
TEXT
  8
1
  6
CONTINUOUS
 40
0.075000
 10
285.477000
 20
34.272000
  1
0.60
  7
ROMANC
  0
LINE
  8
1
  6
CONTINUOUS
 10
285.146000
 20
34.310000
 11
285.296000
 21
34.310000
  0
LINE
  8
1
  6
CONTINUOUS
 10
286.046000
 20
34.310000
 11
285.896000
 21
34.310000
  0
LINE
  8
1
  6
CONTINUOUS
 10
285.334000
 20
34.329000
 11
285.258000
 21
34.291000
  0
LINE
  8
1
  6
CONTINUOUS
 10
285.858000
 20
34.291000
 11
285.934000
 21
34.329000
  0
LINE
  8
1
  6
CONTINUOUS
 10
285.296000
 20
34.797000
 11
285.296000
 21
34.272000
  0
LINE
  8
1
  6
CONTINUOUS
 10
285.896000
 20
34.797000
 11
285.896000
 21
34.272000
  0
TEXT
  8
1
  6
CONTINUOUS
 40
0.075000
 10
286.394000
 20
35.425000
  1
1.70
 50
90.000000
  7
ROMANC
  0
LINE
  8
1
  6
CONTINUOUS
 10
286.357000
 20
35.387000
 11
286.357000
 21
34.685000
  0
LINE
  8
1
  6
CONTINUOUS
 10
286.357000
 20
35.682000
 11
286.357000
 21
36.385000
  0
LINE
  8
1
  6
CONTINUOUS
 10
286.376000
 20
34.648000
 11
286.338000
 21
34.722000
  0
LINE
  8
1
  6
CONTINUOUS
 10
286.338000
 20
36.422000
 11
286.376000
 21
36.348000
  0
LINE
  8
1
  6
CONTINUOUS
 10
285.634000
 20
34.685000
 11
286.395000
 21
34.685000
  0
LINE
  8
1
  6
CONTINUOUS
 10
285.634000
 20
36.385000
 11
286.395000
 21
36.385000
  0
ARC
  8
1
  6
CONTINUOUS
 10
285.596000
 20
35.935000
 40
0.460000
 50
0.638244
 51
180.253217
  0
ARC
  8
1
  6
CONTINUOUS
 10
285.596000
 20
35.935000
 40
0.470000
 50
0.511522
 51
180.374706
  0
LINE
  8
1
  6
CONTINUOUS
 10
285.287000
 20
34.825000
 11
285.136000
 21
35.933000
  0
LINE
  8
1
  6
CONTINUOUS
 10
285.278000
 20
34.815000
 11
285.126000
 21
35.932000
  0
LINE
  8
1
  6
CONTINUOUS
 10
285.389000
 20
34.825000
 11
285.287000
 21
34.825000
  0
LINE
  8
1
  6
CONTINUOUS
 10
285.382000
 20
34.815000
 11
285.278000
 21
34.815000
  0
ARC
  8
1
  6
CONTINUOUS
 10
285.596000
 20
34.893333
 40
0.218333
 50
198.238736
 51
341.761264
  0
ARC
  8
1
  6
CONTINUOUS
 10
285.596000
 20
34.893333
 40
0.228333
 50
200.063764
 51
339.936236
  0
LINE
  8
1
  6
CONTINUOUS
 10
285.904000
 20
34.825000
 11
285.803000
 21
34.825000
  0
LINE
  8
1
  6
CONTINUOUS
 10
285.913000
 20
34.815000
 11
285.810000
 21
34.815000
  0
LINE
  8
1
  6
CONTINUOUS
 10
286.056000
 20
35.940000
 11
285.904000
 21
34.825000
  0
LINE
  8
1
  6
CONTINUOUS
 10
286.066000
 20
35.939000
 11
285.913000
 21
34.815000
  0
ENDSEC
  0
EOF
