  0
SECTION
  2
HEADER
  9
$ACADVER
  1
AC1009
  9
$INSBASE
 10
0.0
 20
0.0
 30
0.0
  9
$EXTMIN
 10
281.396000
 20
29.897000
 30
-2147483.648000
  9
$EXTMAX
 10
291.896000
 20
44.747000
 30
0.000000
  9
$LIMMIN
 10
280.396000
 20
28.897000
  9
$LIMMAX
 10
292.896000
 20
43.747000
  9
$ORTHOMODE
 70
     0
  9
$REGENMODE
 70
     1
  9
$FILLMODE
 70
     1
  9
$QTEXTMODE
 70
     0
  9
$MIRRTEXT
 70
     1
  9
$DRAGMODE
 70
     2
  9
$LTSCALE
 40
1.0
  9
$OSMODE
 70
     0
  9
$ATTMODE
 70
     1
  9
$TEXTSIZE
 40
0.2
  9
$TRACEWID
 40
0.05
  9
$TEXTSTYLE
  7
STANDARD
  9
$CLAYER
  8
0
  9
$CELTYPE
  6
BYLAYER
  9
$CECOLOR
 62
   256
  9
$DIMSCALE
 40
1.0
  9
$DIMASZ
 40
0.18
  9
$DIMEXO
 40
0.0625
  9
$DIMDLI
 40
0.38
  9
$DIMRND
 40
0.0
  9
$DIMDLE
 40
0.0
  9
$DIMEXE
 40
0.18
  9
$DIMTP
 40
0.0
  9
$DIMTM
 40
0.0
  9
$DIMTXT
 40
0.18
  9
$DIMCEN
 40
0.09
  9
$DIMTSZ
 40
0.0
  9
$DIMTOL
 70
     0
  9
$DIMLIM
 70
     0
  9
$DIMTIH
 70
     1
  9
$DIMTOH
 70
     1
  9
$DIMSE1
 70
     0
  9
$DIMSE2
 70
     0
  9
$DIMTAD
 70
     0
  9
$DIMZIN
 70
     0
  9
$DIMBLK
  1

  9
$DIMASO
 70
     1
  9
$DIMSHO
 70
     1
  9
$DIMPOST
  1

  9
$DIMAPOST
  1

  9
$DIMALT
 70
     0
  9
$DIMALTD
 70
     2
  9
$DIMALTF
 40
25.4
  9
$DIMLFAC
 40
1.0
  9
$DIMTOFL
 70
     0
  9
$DIMTVP
 40
0.0
  9
$DIMTIX
 70
     0
  9
$DIMSOXD
 70
     0
  9
$DIMSAH
 70
     0
  9
$DIMBLK1
  1

  9
$DIMBLK2
  1

  9
$DIMSTYLE
  2
*UNNAMED
  9
$DIMCLRD
 70
     0
  9
$DIMCLRE
 70
     0
  9
$DIMCLRT
 70
     0
  9
$DIMTFAC
 40
1.0
  9
$DIMGAP
 40
0.09
  9
$LUNITS
 70
     2
  9
$LUPREC
 70
     4
  9
$AXISMODE
 70
     0
  9
$AXISUNIT
 10
0.0
 20
0.0
  9
$SKETCHINC
 40
0.1
  9
$FILLETRAD
 40
0.0
  9
$AUNITS
 70
     0
  9
$AUPREC
 70
     0
  9
$MENU
  1
acad
  9
$ELEVATION
 40
0.0
  9
$PELEVATION
 40
0.0
  9
$THICKNESS
 40
0.0
  9
$LIMCHECK
 70
     0
  9
$BLIPMODE
 70
     1
  9
$CHAMFERA
 40
0.0
  9
$CHAMFERB
 40
0.0
  9
$SKPOLY
 70
     0
  9
$TDCREATE
 40
2448315.373408102
  9
$TDUPDATE
 40
2448315.373408102
  9
$TDINDWG
 40
0.0000000000
  9
$TDUSRTIMER
 40
0.0000000000
  9
$USRTIMER
 70
     1
  9
$ANGBASE
 50
0.0
  9
$ANGDIR
 70
     0
  9
$PDMODE
 70
     0
  9
$PDSIZE
 40
0.0
  9
$PLINEWID
 40
0.0
  9
$COORDS
 70
     0
  9
$SPLFRAME
 70
     0
  9
$SPLINETYPE
 70
     6
  9
$SPLINESEGS
 70
     8
  9
$ATTDIA
 70
     0
  9
$ATTREQ
 70
     1
  9
$HANDLING
 70
     0
  9
$HANDSEED
  5
0
  9
$SURFTAB1
 70
     6
  9
$SURFTAB2
 70
     6
  9
$SURFTYPE
 70
     6
  9
$SURFU
 70
     6
  9
$SURFV
 70
     6
  9
$UCSNAME
  2

  9
$UCSORG
 10
0.0
 20
0.0
 30
0.0
  9
$UCSXDIR
 10
1.0
 20
0.0
 30
0.0
  9
$UCSYDIR
 10
0.0
 20
1.0
 30
0.0
  9
$PUCSNAME
  2

  9
$PUCSORG
 10
0.0
 20
0.0
 30
0.0
  9
$PUCSXDIR
 10
1.0
 20
0.0
 30
0.0
  9
$PUCSYDIR
 10
0.0
 20
1.0
 30
0.0
  9
$USERI1
 70
     0
  9
$USERI2
 70
     0
  9
$USERI3
 70
     0
  9
$USERI4
 70
     0
  9
$USERI5
 70
     0
  9
$USERR1
 40
0.0
  9
$USERR2
 40
0.0
  9
$USERR3
 40
0.0
  9
$USERR4
 40
0.0
  9
$USERR5
 40
0.0
  9
$WORLDVIEW
 70
     1
  9
$SHADEDGE
 70
     3
  9
$SHADEDIF
 70
    70
  9
$TILEMODE
 70
     1
  9
$MAXACTVP
 70
    16
  9
$PINSBASE
 10
0.0
 20
0.0
 30
0.0
  9
$PLIMCHECK
 70
     0
  9
$PEXTMIN
 10
1.000000E+20
 20
1.000000E+20
 30
1.000000E+20
  9
$PEXTMAX
 10
-1.000000E+20
 20
-1.000000E+20
 30
-1.000000E+20
  9
$PLIMMIN
 10
0.0
 20
0.0
  9
$PLIMMAX
 10
12.0
 20
9.0
  9
$UNITMODE
 70
     0
  9
$VISRETAIN
 70
     0
  0
ENDSEC
  0
SECTION
  2
TABLES
  0
TABLE
  2
LTYPE
 70
    1
  0
LTYPE
  2
CONTINUOUS
 70
    64
3
Solid line
 72
    65
 73
0
 40
0.000000
  0
ENDTAB
  0
TABLE
  2
LAYER
 70
    8
  0
LAYER
  2
0
 70
    64
 62
7
  6
CONTINUOUS
  0
LAYER
  2
1
 70
    64
 62
7
  6
CONTINUOUS
  0
LAYER
  2
7
 70
    64
 62
7
  6
CONTINUOUS
  0
LAYER
  2
8
 70
    64
 62
7
  6
CONTINUOUS
  0
LAYER
  2
9
 70
    64
 62
7
  6
CONTINUOUS
  0
LAYER
  2
22
 70
    64
 62
7
  6
CONTINUOUS
  0
LAYER
  2
25
 70
    64
 62
7
  6
CONTINUOUS
  0
LAYER
  2
0
 70
    64
 62
7
  6
CONTINUOUS
  0
ENDTAB
  0
TABLE
  2
STYLE
 70
    1
  0
STYLE
  2
ROMANC
70
     0
 40
0.0
 41
1.0
 50
0.0
 71
     0
 42
0.2
  3
ROMANC
  4

  0
ENDTAB
  0
ENDSEC
  0
SECTION
  2
BLOCKS
  0
ENDSEC
  0
SECTION
  2
ENTITIES
  0
TEXT
  8
0
  6
CONTINUOUS
 40
0.100000
 10
286.909000
 20
41.324000
  1
2
  7
ROMANC
  0
TEXT
  8
0
  6
CONTINUOUS
 40
0.300000
 10
283.926000
 20
41.768000
  1
ESCALA  1:50
  7
ROMANC
  0
POLYLINE
  8
0
  6
CONTINUOUS
 66
     1
 70
     1
  0
VERTEX
  8
0
  6
CONTINUOUS
 10
281.396000
 20
44.747000
  0
VERTEX
  8
0
  6
CONTINUOUS
 10
291.896000
 20
44.747000
  0
VERTEX
  8
0
  6
CONTINUOUS
 10
291.896000
 20
29.897000
  0
VERTEX
  8
0
  6
CONTINUOUS
 10
281.396000
 20
29.897000
  0
SEQEND
  8
0
  0
TEXT
  8
0
  6
CONTINUOUS
 40
0.300000
 10
283.926000
 20
42.381000
  1
TIPUS   T117A
  7
ROMANC
  0
TEXT
  8
0
  6
CONTINUOUS
 40
0.300000
 10
283.945000
 20
41.099000
  1
S = 117 dm
  7
ROMANC
  0
TEXT
  8
0
  6
CONTINUOUS
 40
0.300000
 10
283.922000
 20
40.529000
  1
P = 44.4 dm
  7
ROMANC
  0
LINE
  8
1
  6
CONTINUOUS
 10
286.101000
 20
32.786000
 11
286.151000
 21
32.786000
  0
ARC
  8
1
  6
CONTINUOUS
 10
286.351000
 20
32.844333
 40
0.208333
 50
196.260206
 51
343.739797
  0
TEXT
  8
1
  6
CONTINUOUS
 40
0.075000
 10
286.229000
 20
32.428000
  1
0.40
  7
ROMANC
  0
LINE
  8
1
  6
CONTINUOUS
 10
286.001000
 20
32.466000
 11
286.151000
 21
32.466000
  0
LINE
  8
1
  6
CONTINUOUS
 10
286.701000
 20
32.466000
 11
286.551000
 21
32.466000
  0
LINE
  8
1
  6
CONTINUOUS
 10
286.188000
 20
32.485000
 11
286.114000
 21
32.447000
  0
LINE
  8
1
  6
CONTINUOUS
 10
286.514000
 20
32.447000
 11
286.588000
 21
32.485000
  0
LINE
  8
1
  6
CONTINUOUS
 10
286.151000
 20
32.748000
 11
286.151000
 21
32.428000
  0
LINE
  8
1
  6
CONTINUOUS
 10
286.551000
 20
32.748000
 11
286.551000
 21
32.428000
  0
LINE
  8
1
  6
CONTINUOUS
 10
285.926000
 20
33.836000
 11
286.101000
 21
32.786000
  0
LINE
  8
1
  6
CONTINUOUS
 10
286.776000
 20
33.836000
 11
286.601000
 21
32.786000
  0
TEXT
  8
1
  6
CONTINUOUS
 40
0.075000
 10
286.232000
 20
32.260000
  1
0.50
  7
ROMANC
  0
LINE
  8
1
  6
CONTINUOUS
 10
285.951000
 20
32.297000
 11
286.101000
 21
32.297000
  0
LINE
  8
1
  6
CONTINUOUS
 10
286.751000
 20
32.297000
 11
286.601000
 21
32.297000
  0
LINE
  8
1
  6
CONTINUOUS
 10
286.138000
 20
32.316000
 11
286.064000
 21
32.278000
  0
LINE
  8
1
  6
CONTINUOUS
 10
286.564000
 20
32.278000
 11
286.638000
 21
32.316000
  0
LINE
  8
1
  6
CONTINUOUS
 10
286.101000
 20
32.748000
 11
286.101000
 21
32.259000
  0
LINE
  8
1
  6
CONTINUOUS
 10
286.601000
 20
32.748000
 11
286.601000
 21
32.259000
  0
LINE
  8
1
  6
CONTINUOUS
 10
286.601000
 20
32.786000
 11
286.551000
 21
32.786000
  0
TEXT
  8
1
  6
CONTINUOUS
 40
0.075000
 10
286.868000
 20
32.967000
  1
0.15
 50
90.000000
  7
ROMANC
  0
LINE
  8
1
  6
CONTINUOUS
 10
286.830000
 20
32.486000
 11
286.830000
 21
32.636000
  0
LINE
  8
1
  6
CONTINUOUS
 10
286.830000
 20
32.929000
 11
286.830000
 21
32.786000
  0
LINE
  8
1
  6
CONTINUOUS
 10
286.811000
 20
32.674000
 11
286.849000
 21
32.598000
  0
LINE
  8
1
  6
CONTINUOUS
 10
286.849000
 20
32.748000
 11
286.811000
 21
32.824000
  0
LINE
  8
1
  6
CONTINUOUS
 10
286.389000
 20
32.636000
 11
286.868000
 21
32.636000
  0
LINE
  8
1
  6
CONTINUOUS
 10
286.639000
 20
32.786000
 11
286.868000
 21
32.786000
  0
TEXT
  8
1
  6
CONTINUOUS
 40
0.075000
 10
287.074000
 20
33.201000
  1
1.05
 50
90.000000
  7
ROMANC
  0
LINE
  8
1
  6
CONTINUOUS
 10
287.037000
 20
33.163000
 11
287.037000
 21
32.786000
  0
LINE
  8
1
  6
CONTINUOUS
 10
287.037000
 20
33.458000
 11
287.037000
 21
33.836000
  0
LINE
  8
1
  6
CONTINUOUS
 10
287.056000
 20
32.748000
 11
287.018000
 21
32.824000
  0
LINE
  8
1
  6
CONTINUOUS
 10
287.018000
 20
33.874000
 11
287.056000
 21
33.798000
  0
LINE
  8
1
  6
CONTINUOUS
 10
286.639000
 20
32.786000
 11
287.075000
 21
32.786000
  0
LINE
  8
1
  6
CONTINUOUS
 10
286.814000
 20
33.836000
 11
287.075000
 21
33.836000
  0
TEXT
  8
1
  6
CONTINUOUS
 40
0.075000
 10
287.326000
 20
33.436000
  1
1.82
 50
90.000000
  7
ROMANC
  0
LINE
  8
1
  6
CONTINUOUS
 10
287.289000
 20
33.398000
 11
287.289000
 21
32.636000
  0
LINE
  8
1
  6
CONTINUOUS
 10
287.289000
 20
33.693000
 11
287.289000
 21
34.456000
  0
LINE
  8
1
  6
CONTINUOUS
 10
287.308000
 20
32.598000
 11
287.270000
 21
32.674000
  0
LINE
  8
1
  6
CONTINUOUS
 10
287.270000
 20
34.494000
 11
287.308000
 21
34.418000
  0
LINE
  8
1
  6
CONTINUOUS
 10
286.389000
 20
32.636000
 11
287.327000
 21
32.636000
  0
LINE
  8
1
  6
CONTINUOUS
 10
286.389000
 20
34.456000
 11
287.327000
 21
34.456000
  0
POLYLINE
  8
1
  6
CONTINUOUS
 66
     1
 70
     0
  0
VERTEX
  8
1
  6
CONTINUOUS
 10
286.776000
 20
33.836000
 42
0.022390
  0
VERTEX
  8
1
  6
CONTINUOUS
 10
286.772398
 20
33.916565
 42
0.023007
  0
VERTEX
  8
1
  6
CONTINUOUS
 10
286.761518
 20
33.996468
 42
0.023418
  0
VERTEX
  8
1
  6
CONTINUOUS
 10
286.743930
 20
34.072278
 42
0.025362
  0
VERTEX
  8
1
  6
CONTINUOUS
 10
286.719061
 20
34.146000
 42
0.026248
  0
VERTEX
  8
1
  6
CONTINUOUS
 10
286.688871
 20
34.212108
 42
0.029740
  0
VERTEX
  8
1
  6
CONTINUOUS
 10
286.651520
 20
34.274406
 42
0.031188
  0
VERTEX
  8
1
  6
CONTINUOUS
 10
286.610804
 20
34.326654
 42
0.036238
  0
VERTEX
  8
1
  6
CONTINUOUS
 10
286.563500
 20
34.372936
 42
0.038164
  0
VERTEX
  8
1
  6
CONTINUOUS
 10
286.514742
 20
34.408099
 42
0.043586
  0
VERTEX
  8
1
  6
CONTINUOUS
 10
286.460998
 20
34.434874
 42
0.045228
  0
VERTEX
  8
1
  6
CONTINUOUS
 10
286.406960
 20
34.450534
 42
0.047796
  0
VERTEX
  8
1
  6
CONTINUOUS
 10
286.351000
 20
34.456000
 42
0.047796
  0
VERTEX
  8
1
  6
CONTINUOUS
 10
286.295040
 20
34.450534
 42
0.045228
  0
VERTEX
  8
1
  6
CONTINUOUS
 10
286.241002
 20
34.434874
 42
0.043586
  0
VERTEX
  8
1
  6
CONTINUOUS
 10
286.187258
 20
34.408099
 42
0.038164
  0
VERTEX
  8
1
  6
CONTINUOUS
 10
286.138500
 20
34.372936
 42
0.036238
  0
VERTEX
  8
1
  6
CONTINUOUS
 10
286.091196
 20
34.326654
 42
0.031188
  0
VERTEX
  8
1
  6
CONTINUOUS
 10
286.050480
 20
34.274406
 42
0.029740
  0
VERTEX
  8
1
  6
CONTINUOUS
 10
286.013129
 20
34.212108
 42
0.026248
  0
VERTEX
  8
1
  6
CONTINUOUS
 10
285.982939
 20
34.146000
 42
0.025362
  0
VERTEX
  8
1
  6
CONTINUOUS
 10
285.958070
 20
34.072278
 42
0.023418
  0
VERTEX
  8
1
  6
CONTINUOUS
 10
285.940482
 20
33.996468
 42
0.023007
  0
VERTEX
  8
1
  6
CONTINUOUS
 10
285.929602
 20
33.916565
 42
0.022390
  0
VERTEX
  8
1
  6
CONTINUOUS
 10
285.926000
 20
33.836000
  0
SEQEND
  8
0
  0
TEXT
  8
1
  6
CONTINUOUS
 40
0.075000
 10
286.232000
 20
34.614000
  1
0.85
  7
ROMANC
  0
LINE
  8
1
  6
CONTINUOUS
 10
286.194000
 20
34.652000
 11
285.926000
 21
34.652000
  0
LINE
  8
1
  6
CONTINUOUS
 10
286.506000
 20
34.652000
 11
286.776000
 21
34.652000
  0
LINE
  8
1
  6
CONTINUOUS
 10
285.888000
 20
34.633000
 11
285.964000
 21
34.671000
  0
LINE
  8
1
  6
CONTINUOUS
 10
286.814000
 20
34.671000
 11
286.738000
 21
34.633000
  0
LINE
  8
1
  6
CONTINUOUS
 10
285.926000
 20
33.874000
 11
285.926000
 21
34.690000
  0
LINE
  8
1
  6
CONTINUOUS
 10
286.776000
 20
33.874000
 11
286.776000
 21
34.690000
  0
TEXT
  8
1
  6
CONTINUOUS
 40
0.075000
 10
287.074000
 20
34.027000
  1
0.62
 50
90.000000
  7
ROMANC
  0
LINE
  8
1
  6
CONTINUOUS
 10
287.037000
 20
33.989000
 11
287.037000
 21
33.836000
  0
LINE
  8
1
  6
CONTINUOUS
 10
287.037000
 20
34.301000
 11
287.037000
 21
34.456000
  0
LINE
  8
1
  6
CONTINUOUS
 10
287.056000
 20
33.798000
 11
287.018000
 21
33.874000
  0
LINE
  8
1
  6
CONTINUOUS
 10
287.018000
 20
34.494000
 11
287.056000
 21
34.418000
  0
LINE
  8
1
  6
CONTINUOUS
 10
286.814000
 20
33.836000
 11
287.075000
 21
33.836000
  0
LINE
  8
1
  6
CONTINUOUS
 10
286.427000
 20
34.456000
 11
287.075000
 21
34.456000
  0
POLYLINE
  8
1
  6
CONTINUOUS
 66
     1
 70
     0
  0
VERTEX
  8
1
  6
CONTINUOUS
 10
286.786000
 20
33.836000
 42
0.022553
  0
VERTEX
  8
1
  6
CONTINUOUS
 10
286.782312
 20
33.917870
 42
0.023167
  0
VERTEX
  8
1
  6
CONTINUOUS
 10
286.771178
 20
33.999056
 42
0.023575
  0
VERTEX
  8
1
  6
CONTINUOUS
 10
286.753171
 20
34.076103
 42
0.025504
  0
VERTEX
  8
1
  6
CONTINUOUS
 10
286.727721
 20
34.151000
 42
0.026382
  0
VERTEX
  8
1
  6
CONTINUOUS
 10
286.696809
 20
34.218195
 42
0.029831
  0
VERTEX
  8
1
  6
CONTINUOUS
 10
286.658591
 20
34.281477
 42
0.031258
  0
VERTEX
  8
1
  6
CONTINUOUS
 10
286.616895
 20
34.334591
 42
0.036214
  0
VERTEX
  8
1
  6
CONTINUOUS
 10
286.568500
 20
34.381596
 42
0.038096
  0
VERTEX
  8
1
  6
CONTINUOUS
 10
286.518568
 20
34.417342
 42
0.043374
  0
VERTEX
  8
1
  6
CONTINUOUS
 10
286.463586
 20
34.444533
 42
0.044965
  0
VERTEX
  8
1
  6
CONTINUOUS
 10
286.408264
 20
34.460450
 42
0.047448
  0
VERTEX
  8
1
  6
CONTINUOUS
 10
286.351000
 20
34.466000
 42
0.047448
  0
VERTEX
  8
1
  6
CONTINUOUS
 10
286.293736
 20
34.460450
 42
0.044965
  0
VERTEX
  8
1
  6
CONTINUOUS
 10
286.238414
 20
34.444533
 42
0.043374
  0
VERTEX
  8
1
  6
CONTINUOUS
 10
286.183432
 20
34.417342
 42
0.038096
  0
VERTEX
  8
1
  6
CONTINUOUS
 10
286.133500
 20
34.381596
 42
0.036214
  0
VERTEX
  8
1
  6
CONTINUOUS
 10
286.085105
 20
34.334591
 42
0.031258
  0
VERTEX
  8
1
  6
CONTINUOUS
 10
286.043409
 20
34.281477
 42
0.029831
  0
VERTEX
  8
1
  6
CONTINUOUS
 10
286.005191
 20
34.218195
 42
0.026382
  0
VERTEX
  8
1
  6
CONTINUOUS
 10
285.974279
 20
34.151000
 42
0.025504
  0
VERTEX
  8
1
  6
CONTINUOUS
 10
285.948829
 20
34.076103
 42
0.023575
  0
VERTEX
  8
1
  6
CONTINUOUS
 10
285.930822
 20
33.999056
 42
0.023167
  0
VERTEX
  8
1
  6
CONTINUOUS
 10
285.919688
 20
33.917870
 42
0.022553
  0
VERTEX
  8
1
  6
CONTINUOUS
 10
285.916000
 20
33.836000
  0
SEQEND
  8
0
  0
POLYLINE
  8
1
  6
CONTINUOUS
 66
     1
 70
     0
  0
VERTEX
  8
1
  6
CONTINUOUS
 10
286.796000
 20
33.836000
 42
0.022712
  0
VERTEX
  8
1
  6
CONTINUOUS
 10
286.792227
 20
33.919174
 42
0.023321
  0
VERTEX
  8
1
  6
CONTINUOUS
 10
286.780837
 20
34.001644
 42
0.023727
  0
VERTEX
  8
1
  6
CONTINUOUS
 10
286.762412
 20
34.079928
 42
0.025640
  0
VERTEX
  8
1
  6
CONTINUOUS
 10
286.736381
 20
34.156000
 42
0.026510
  0
VERTEX
  8
1
  6
CONTINUOUS
 10
286.704746
 20
34.224283
 42
0.029917
  0
VERTEX
  8
1
  6
CONTINUOUS
 10
286.665663
 20
34.288548
 42
0.031324
  0
VERTEX
  8
1
  6
CONTINUOUS
 10
286.622986
 20
34.342528
 42
0.036189
  0
VERTEX
  8
1
  6
CONTINUOUS
 10
286.573500
 20
34.390256
 42
0.038030
  0
VERTEX
  8
1
  6
CONTINUOUS
 10
286.522394
 20
34.426585
 42
0.043170
  0
VERTEX
  8
1
  6
CONTINUOUS
 10
286.466174
 20
34.454193
 42
0.044712
  0
VERTEX
  8
1
  6
CONTINUOUS
 10
286.409567
 20
34.470365
 42
0.047116
  0
VERTEX
  8
1
  6
CONTINUOUS
 10
286.351000
 20
34.476000
 42
0.047116
  0
VERTEX
  8
1
  6
CONTINUOUS
 10
286.292433
 20
34.470365
 42
0.044712
  0
VERTEX
  8
1
  6
CONTINUOUS
 10
286.235826
 20
34.454193
 42
0.043170
  0
VERTEX
  8
1
  6
CONTINUOUS
 10
286.179606
 20
34.426585
 42
0.038030
  0
VERTEX
  8
1
  6
CONTINUOUS
 10
286.128500
 20
34.390256
 42
0.036189
  0
VERTEX
  8
1
  6
CONTINUOUS
 10
286.079014
 20
34.342528
 42
0.031324
  0
VERTEX
  8
1
  6
CONTINUOUS
 10
286.036337
 20
34.288548
 42
0.029917
  0
VERTEX
  8
1
  6
CONTINUOUS
 10
285.997254
 20
34.224283
 42
0.026510
  0
VERTEX
  8
1
  6
CONTINUOUS
 10
285.965619
 20
34.156000
 42
0.025640
  0
VERTEX
  8
1
  6
CONTINUOUS
 10
285.939588
 20
34.079928
 42
0.023727
  0
VERTEX
  8
1
  6
CONTINUOUS
 10
285.921163
 20
34.001644
 42
0.023321
  0
VERTEX
  8
1
  6
CONTINUOUS
 10
285.909773
 20
33.919174
 42
0.022712
  0
VERTEX
  8
1
  6
CONTINUOUS
 10
285.906000
 20
33.836000
  0
SEQEND
  8
0
  0
LINE
  8
1
  6
CONTINUOUS
 10
286.785000
 20
33.834000
 11
286.609000
 21
32.776000
  0
LINE
  8
1
  6
CONTINUOUS
 10
286.795000
 20
33.832000
 11
286.617000
 21
32.766000
  0
LINE
  8
1
  6
CONTINUOUS
 10
286.609000
 20
32.776000
 11
286.558000
 21
32.776000
  0
LINE
  8
1
  6
CONTINUOUS
 10
286.617000
 20
32.766000
 11
286.565000
 21
32.766000
  0
ARC
  8
1
  6
CONTINUOUS
 10
286.351000
 20
32.844333
 40
0.218333
 50
198.238736
 51
341.761264
  0
ARC
  8
1
  6
CONTINUOUS
 10
286.351000
 20
32.844333
 40
0.228333
 50
200.063764
 51
339.936236
  0
LINE
  8
1
  6
CONTINUOUS
 10
286.092000
 20
32.776000
 11
286.144000
 21
32.776000
  0
LINE
  8
1
  6
CONTINUOUS
 10
286.084000
 20
32.766000
 11
286.137000
 21
32.766000
  0
LINE
  8
1
  6
CONTINUOUS
 10
285.916000
 20
33.834000
 11
286.092000
 21
32.776000
  0
LINE
  8
1
  6
CONTINUOUS
 10
285.906000
 20
33.832000
 11
286.084000
 21
32.766000
  0
ENDSEC
  0
EOF
