  0
SECTION
  2
HEADER
  9
$ACADVER
  1
AC1009
  9
$INSBASE
 10
0.0
 20
0.0
 30
0.0
  9
$EXTMIN
 10
281.396000
 20
29.897000
 30
-2147483.648000
  9
$EXTMAX
 10
291.896000
 20
44.747000
 30
0.000000
  9
$LIMMIN
 10
280.396000
 20
28.897000
  9
$LIMMAX
 10
292.896000
 20
43.747000
  9
$ORTHOMODE
 70
     0
  9
$REGENMODE
 70
     1
  9
$FILLMODE
 70
     1
  9
$QTEXTMODE
 70
     0
  9
$MIRRTEXT
 70
     1
  9
$DRAGMODE
 70
     2
  9
$LTSCALE
 40
1.0
  9
$OSMODE
 70
     0
  9
$ATTMODE
 70
     1
  9
$TEXTSIZE
 40
0.2
  9
$TRACEWID
 40
0.05
  9
$TEXTSTYLE
  7
STANDARD
  9
$CLAYER
  8
0
  9
$CELTYPE
  6
BYLAYER
  9
$CECOLOR
 62
   256
  9
$DIMSCALE
 40
1.0
  9
$DIMASZ
 40
0.18
  9
$DIMEXO
 40
0.0625
  9
$DIMDLI
 40
0.38
  9
$DIMRND
 40
0.0
  9
$DIMDLE
 40
0.0
  9
$DIMEXE
 40
0.18
  9
$DIMTP
 40
0.0
  9
$DIMTM
 40
0.0
  9
$DIMTXT
 40
0.18
  9
$DIMCEN
 40
0.09
  9
$DIMTSZ
 40
0.0
  9
$DIMTOL
 70
     0
  9
$DIMLIM
 70
     0
  9
$DIMTIH
 70
     1
  9
$DIMTOH
 70
     1
  9
$DIMSE1
 70
     0
  9
$DIMSE2
 70
     0
  9
$DIMTAD
 70
     0
  9
$DIMZIN
 70
     0
  9
$DIMBLK
  1

  9
$DIMASO
 70
     1
  9
$DIMSHO
 70
     1
  9
$DIMPOST
  1

  9
$DIMAPOST
  1

  9
$DIMALT
 70
     0
  9
$DIMALTD
 70
     2
  9
$DIMALTF
 40
25.4
  9
$DIMLFAC
 40
1.0
  9
$DIMTOFL
 70
     0
  9
$DIMTVP
 40
0.0
  9
$DIMTIX
 70
     0
  9
$DIMSOXD
 70
     0
  9
$DIMSAH
 70
     0
  9
$DIMBLK1
  1

  9
$DIMBLK2
  1

  9
$DIMSTYLE
  2
*UNNAMED
  9
$DIMCLRD
 70
     0
  9
$DIMCLRE
 70
     0
  9
$DIMCLRT
 70
     0
  9
$DIMTFAC
 40
1.0
  9
$DIMGAP
 40
0.09
  9
$LUNITS
 70
     2
  9
$LUPREC
 70
     4
  9
$AXISMODE
 70
     0
  9
$AXISUNIT
 10
0.0
 20
0.0
  9
$SKETCHINC
 40
0.1
  9
$FILLETRAD
 40
0.0
  9
$AUNITS
 70
     0
  9
$AUPREC
 70
     0
  9
$MENU
  1
acad
  9
$ELEVATION
 40
0.0
  9
$PELEVATION
 40
0.0
  9
$THICKNESS
 40
0.0
  9
$LIMCHECK
 70
     0
  9
$BLIPMODE
 70
     1
  9
$CHAMFERA
 40
0.0
  9
$CHAMFERB
 40
0.0
  9
$SKPOLY
 70
     0
  9
$TDCREATE
 40
2448315.373408102
  9
$TDUPDATE
 40
2448315.373408102
  9
$TDINDWG
 40
0.0000000000
  9
$TDUSRTIMER
 40
0.0000000000
  9
$USRTIMER
 70
     1
  9
$ANGBASE
 50
0.0
  9
$ANGDIR
 70
     0
  9
$PDMODE
 70
     0
  9
$PDSIZE
 40
0.0
  9
$PLINEWID
 40
0.0
  9
$COORDS
 70
     0
  9
$SPLFRAME
 70
     0
  9
$SPLINETYPE
 70
     6
  9
$SPLINESEGS
 70
     8
  9
$ATTDIA
 70
     0
  9
$ATTREQ
 70
     1
  9
$HANDLING
 70
     0
  9
$HANDSEED
  5
0
  9
$SURFTAB1
 70
     6
  9
$SURFTAB2
 70
     6
  9
$SURFTYPE
 70
     6
  9
$SURFU
 70
     6
  9
$SURFV
 70
     6
  9
$UCSNAME
  2

  9
$UCSORG
 10
0.0
 20
0.0
 30
0.0
  9
$UCSXDIR
 10
1.0
 20
0.0
 30
0.0
  9
$UCSYDIR
 10
0.0
 20
1.0
 30
0.0
  9
$PUCSNAME
  2

  9
$PUCSORG
 10
0.0
 20
0.0
 30
0.0
  9
$PUCSXDIR
 10
1.0
 20
0.0
 30
0.0
  9
$PUCSYDIR
 10
0.0
 20
1.0
 30
0.0
  9
$USERI1
 70
     0
  9
$USERI2
 70
     0
  9
$USERI3
 70
     0
  9
$USERI4
 70
     0
  9
$USERI5
 70
     0
  9
$USERR1
 40
0.0
  9
$USERR2
 40
0.0
  9
$USERR3
 40
0.0
  9
$USERR4
 40
0.0
  9
$USERR5
 40
0.0
  9
$WORLDVIEW
 70
     1
  9
$SHADEDGE
 70
     3
  9
$SHADEDIF
 70
    70
  9
$TILEMODE
 70
     1
  9
$MAXACTVP
 70
    16
  9
$PINSBASE
 10
0.0
 20
0.0
 30
0.0
  9
$PLIMCHECK
 70
     0
  9
$PEXTMIN
 10
1.000000E+20
 20
1.000000E+20
 30
1.000000E+20
  9
$PEXTMAX
 10
-1.000000E+20
 20
-1.000000E+20
 30
-1.000000E+20
  9
$PLIMMIN
 10
0.0
 20
0.0
  9
$PLIMMAX
 10
12.0
 20
9.0
  9
$UNITMODE
 70
     0
  9
$VISRETAIN
 70
     0
  0
ENDSEC
  0
SECTION
  2
TABLES
  0
TABLE
  2
LTYPE
 70
    1
  0
LTYPE
  2
CONTINUOUS
 70
    64
3
Solid line
 72
    65
 73
0
 40
0.000000
  0
ENDTAB
  0
TABLE
  2
LAYER
 70
    8
  0
LAYER
  2
0
 70
    64
 62
7
  6
CONTINUOUS
  0
LAYER
  2
1
 70
    64
 62
7
  6
CONTINUOUS
  0
LAYER
  2
7
 70
    64
 62
7
  6
CONTINUOUS
  0
LAYER
  2
8
 70
    64
 62
7
  6
CONTINUOUS
  0
LAYER
  2
9
 70
    64
 62
7
  6
CONTINUOUS
  0
LAYER
  2
22
 70
    64
 62
7
  6
CONTINUOUS
  0
LAYER
  2
25
 70
    64
 62
7
  6
CONTINUOUS
  0
LAYER
  2
0
 70
    64
 62
7
  6
CONTINUOUS
  0
ENDTAB
  0
TABLE
  2
STYLE
 70
    1
  0
STYLE
  2
ROMANC
70
     0
 40
0.0
 41
1.0
 50
0.0
 71
     0
 42
0.2
  3
ROMANC
  4

  0
ENDTAB
  0
ENDSEC
  0
SECTION
  2
BLOCKS
  0
ENDSEC
  0
SECTION
  2
ENTITIES
  0
TEXT
  8
0
  6
CONTINUOUS
 40
0.100000
 10
286.909000
 20
41.324000
  1
2
  7
ROMANC
  0
TEXT
  8
0
  6
CONTINUOUS
 40
0.300000
 10
283.926000
 20
41.768000
  1
ESCALA  1:50
  7
ROMANC
  0
POLYLINE
  8
0
  6
CONTINUOUS
 66
     1
 70
     1
  0
VERTEX
  8
0
  6
CONTINUOUS
 10
281.396000
 20
44.747000
  0
VERTEX
  8
0
  6
CONTINUOUS
 10
291.896000
 20
44.747000
  0
VERTEX
  8
0
  6
CONTINUOUS
 10
291.896000
 20
29.897000
  0
VERTEX
  8
0
  6
CONTINUOUS
 10
281.396000
 20
29.897000
  0
SEQEND
  8
0
  0
TEXT
  8
0
  6
CONTINUOUS
 40
0.300000
 10
283.926000
 20
42.381000
  1
TIPUS   T111B
  7
ROMANC
  0
ARC
  8
1
  6
CONTINUOUS
 10
286.360000
 20
34.239000
 40
0.450000
 50
0.000000
 51
180.000000
  0
LINE
  8
1
  6
CONTINUOUS
 10
286.140000
 20
33.189000
 11
286.030000
 21
33.189000
  0
TEXT
  8
0
  6
CONTINUOUS
 40
0.300000
 10
283.922000
 20
40.529000
  1
P = 43 dm
  7
ROMANC
  0
TEXT
  8
0
  6
CONTINUOUS
 40
0.300000
 10
283.945000
 20
41.099000
  1
S = 118 dm
  7
ROMANC
  0
LINE
  8
1
  6
CONTINUOUS
 10
286.030000
 20
33.189000
 11
285.910000
 21
34.239000
  0
ARC
  8
1
  6
CONTINUOUS
 10
286.360000
 20
33.275333
 40
0.236333
 50
201.426247
 51
338.573756
  0
TEXT
  8
1
  6
CONTINUOUS
 40
0.075000
 10
285.642000
 20
32.812000
  1
0.11
  7
ROMANC
  0
LINE
  8
1
  6
CONTINUOUS
 10
285.957000
 20
32.849000
 11
286.030000
 21
32.849000
  0
LINE
  8
1
  6
CONTINUOUS
 10
286.290000
 20
32.849000
 11
286.140000
 21
32.849000
  0
LINE
  8
1
  6
CONTINUOUS
 10
286.068000
 20
32.868000
 11
285.992000
 21
32.830000
  0
LINE
  8
1
  6
CONTINUOUS
 10
286.102000
 20
32.830000
 11
286.178000
 21
32.868000
  0
LINE
  8
1
  6
CONTINUOUS
 10
286.030000
 20
33.151000
 11
286.030000
 21
32.811000
  0
LINE
  8
1
  6
CONTINUOUS
 10
286.140000
 20
33.151000
 11
286.140000
 21
32.811000
  0
LINE
  8
1
  6
CONTINUOUS
 10
286.690000
 20
33.189000
 11
286.580000
 21
33.189000
  0
TEXT
  8
1
  6
CONTINUOUS
 40
0.075000
 10
286.841000
 20
32.812000
  1
0.11
  7
ROMANC
  0
LINE
  8
1
  6
CONTINUOUS
 10
286.430000
 20
32.849000
 11
286.580000
 21
32.849000
  0
LINE
  8
1
  6
CONTINUOUS
 10
286.803000
 20
32.849000
 11
286.690000
 21
32.849000
  0
LINE
  8
1
  6
CONTINUOUS
 10
286.618000
 20
32.868000
 11
286.542000
 21
32.830000
  0
LINE
  8
1
  6
CONTINUOUS
 10
286.652000
 20
32.830000
 11
286.728000
 21
32.868000
  0
LINE
  8
1
  6
CONTINUOUS
 10
286.580000
 20
33.151000
 11
286.580000
 21
32.811000
  0
LINE
  8
1
  6
CONTINUOUS
 10
286.690000
 20
33.151000
 11
286.690000
 21
32.811000
  0
TEXT
  8
1
  6
CONTINUOUS
 40
0.075000
 10
286.234000
 20
32.698000
  1
0.44
  7
ROMANC
  0
LINE
  8
1
  6
CONTINUOUS
 10
285.990000
 20
32.736000
 11
286.140000
 21
32.736000
  0
LINE
  8
1
  6
CONTINUOUS
 10
286.730000
 20
32.736000
 11
286.580000
 21
32.736000
  0
LINE
  8
1
  6
CONTINUOUS
 10
286.178000
 20
32.755000
 11
286.102000
 21
32.717000
  0
LINE
  8
1
  6
CONTINUOUS
 10
286.542000
 20
32.717000
 11
286.618000
 21
32.755000
  0
LINE
  8
1
  6
CONTINUOUS
 10
286.140000
 20
33.151000
 11
286.140000
 21
32.698000
  0
LINE
  8
1
  6
CONTINUOUS
 10
286.580000
 20
33.151000
 11
286.580000
 21
32.698000
  0
LINE
  8
1
  6
CONTINUOUS
 10
286.810000
 20
34.239000
 11
286.690000
 21
33.189000
  0
TEXT
  8
1
  6
CONTINUOUS
 40
0.075000
 10
286.241000
 20
32.556000
  1
0.66
  7
ROMANC
  0
LINE
  8
1
  6
CONTINUOUS
 10
286.203000
 20
32.593000
 11
286.030000
 21
32.593000
  0
LINE
  8
1
  6
CONTINUOUS
 10
286.515000
 20
32.593000
 11
286.690000
 21
32.593000
  0
LINE
  8
1
  6
CONTINUOUS
 10
285.992000
 20
32.574000
 11
286.068000
 21
32.612000
  0
LINE
  8
1
  6
CONTINUOUS
 10
286.728000
 20
32.612000
 11
286.652000
 21
32.574000
  0
LINE
  8
1
  6
CONTINUOUS
 10
286.030000
 20
33.151000
 11
286.030000
 21
32.555000
  0
LINE
  8
1
  6
CONTINUOUS
 10
286.690000
 20
33.151000
 11
286.690000
 21
32.555000
  0
TEXT
  8
1
  6
CONTINUOUS
 40
0.075000
 10
286.886000
 20
33.371000
  1
0.15
 50
90.000000
  7
ROMANC
  0
LINE
  8
1
  6
CONTINUOUS
 10
286.848000
 20
32.889000
 11
286.848000
 21
33.039000
  0
LINE
  8
1
  6
CONTINUOUS
 10
286.848000
 20
33.333000
 11
286.848000
 21
33.189000
  0
LINE
  8
1
  6
CONTINUOUS
 10
286.829000
 20
33.076000
 11
286.867000
 21
33.002000
  0
LINE
  8
1
  6
CONTINUOUS
 10
286.867000
 20
33.152000
 11
286.829000
 21
33.226000
  0
LINE
  8
1
  6
CONTINUOUS
 10
286.398000
 20
33.039000
 11
286.886000
 21
33.039000
  0
LINE
  8
1
  6
CONTINUOUS
 10
286.728000
 20
33.189000
 11
286.886000
 21
33.189000
  0
TEXT
  8
1
  6
CONTINUOUS
 40
0.075000
 10
287.084000
 20
33.604000
  1
1.05
 50
90.000000
  7
ROMANC
  0
LINE
  8
1
  6
CONTINUOUS
 10
287.046000
 20
33.566000
 11
287.046000
 21
33.189000
  0
LINE
  8
1
  6
CONTINUOUS
 10
287.046000
 20
33.861000
 11
287.046000
 21
34.239000
  0
LINE
  8
1
  6
CONTINUOUS
 10
287.065000
 20
33.152000
 11
287.027000
 21
33.226000
  0
LINE
  8
1
  6
CONTINUOUS
 10
287.027000
 20
34.276000
 11
287.065000
 21
34.202000
  0
LINE
  8
1
  6
CONTINUOUS
 10
286.728000
 20
33.189000
 11
287.084000
 21
33.189000
  0
LINE
  8
1
  6
CONTINUOUS
 10
286.848000
 20
34.239000
 11
287.084000
 21
34.239000
  0
TEXT
  8
1
  6
CONTINUOUS
 40
0.075000
 10
287.084000
 20
34.342000
  1
0.45
 50
90.000000
  7
ROMANC
  0
LINE
  8
1
  6
CONTINUOUS
 10
287.046000
 20
34.089000
 11
287.046000
 21
34.239000
  0
LINE
  8
1
  6
CONTINUOUS
 10
287.046000
 20
34.839000
 11
287.046000
 21
34.689000
  0
LINE
  8
1
  6
CONTINUOUS
 10
287.027000
 20
34.276000
 11
287.065000
 21
34.202000
  0
LINE
  8
1
  6
CONTINUOUS
 10
287.065000
 20
34.652000
 11
287.027000
 21
34.726000
  0
LINE
  8
1
  6
CONTINUOUS
 10
286.398000
 20
34.689000
 11
287.084000
 21
34.689000
  0
TEXT
  8
1
  6
CONTINUOUS
 40
0.075000
 10
287.272000
 20
33.754000
  1
1.65
 50
90.000000
  7
ROMANC
  0
LINE
  8
1
  6
CONTINUOUS
 10
287.235000
 20
33.716000
 11
287.235000
 21
33.039000
  0
LINE
  8
1
  6
CONTINUOUS
 10
287.235000
 20
34.011000
 11
287.235000
 21
34.689000
  0
LINE
  8
1
  6
CONTINUOUS
 10
287.254000
 20
33.002000
 11
287.216000
 21
33.076000
  0
LINE
  8
1
  6
CONTINUOUS
 10
287.216000
 20
34.726000
 11
287.254000
 21
34.652000
  0
LINE
  8
1
  6
CONTINUOUS
 10
286.398000
 20
33.039000
 11
287.273000
 21
33.039000
  0
LINE
  8
1
  6
CONTINUOUS
 10
286.398000
 20
34.689000
 11
287.273000
 21
34.689000
  0
LINE
  8
1
  6
CONTINUOUS
 10
286.819000
 20
34.237000
 11
286.698000
 21
33.179000
  0
LINE
  8
1
  6
CONTINUOUS
 10
286.829000
 20
34.236000
 11
286.707000
 21
33.169000
  0
ARC
  8
1
  6
CONTINUOUS
 10
286.360000
 20
34.239000
 40
0.460000
 50
0.000000
 51
180.000000
  0
ARC
  8
1
  6
CONTINUOUS
 10
286.360000
 20
34.239000
 40
0.470000
 50
0.000000
 51
180.000000
  0
LINE
  8
1
  6
CONTINUOUS
 10
286.021000
 20
33.179000
 11
285.900000
 21
34.237000
  0
LINE
  8
1
  6
CONTINUOUS
 10
286.012000
 20
33.169000
 11
285.890000
 21
34.236000
  0
LINE
  8
1
  6
CONTINUOUS
 10
286.133000
 20
33.179000
 11
286.021000
 21
33.179000
  0
LINE
  8
1
  6
CONTINUOUS
 10
286.127000
 20
33.169000
 11
286.012000
 21
33.169000
  0
ARC
  8
1
  6
CONTINUOUS
 10
286.360000
 20
33.275333
 40
0.246333
 50
203.021033
 51
336.978967
  0
ARC
  8
1
  6
CONTINUOUS
 10
286.360000
 20
33.275333
 40
0.256333
 50
204.508261
 51
335.491739
  0
LINE
  8
1
  6
CONTINUOUS
 10
286.698000
 20
33.179000
 11
286.587000
 21
33.179000
  0
LINE
  8
1
  6
CONTINUOUS
 10
286.707000
 20
33.169000
 11
286.593000
 21
33.169000
  0
TEXT
  8
1
  6
CONTINUOUS
 40
0.075000
 10
286.241000
 20
34.770000
  1
0.90
  7
ROMANC
  0
LINE
  8
1
  6
CONTINUOUS
 10
286.203000
 20
34.807000
 11
285.910000
 21
34.807000
  0
LINE
  8
1
  6
CONTINUOUS
 10
286.515000
 20
34.807000
 11
286.810000
 21
34.807000
  0
LINE
  8
1
  6
CONTINUOUS
 10
285.872000
 20
34.788000
 11
285.948000
 21
34.826000
  0
LINE
  8
1
  6
CONTINUOUS
 10
286.848000
 20
34.826000
 11
286.772000
 21
34.788000
  0
LINE
  8
1
  6
CONTINUOUS
 10
285.910000
 20
34.277000
 11
285.910000
 21
34.845000
  0
LINE
  8
1
  6
CONTINUOUS
 10
286.810000
 20
34.277000
 11
286.810000
 21
34.845000
  0
ENDSEC
  0
EOF
