  0
SECTION
  2
HEADER
  9
$ACADVER
  1
AC1009
  9
$INSBASE
 10
0.0
 20
0.0
 30
0.0
  9
$EXTMIN
 10
281.396
 20
29.897
 30
0.0
  9
$EXTMAX
 10
291.896
 20
44.747
 30
0.0
  9
$LIMMIN
 10
280.396
 20
28.897
  9
$LIMMAX
 10
292.896
 20
43.747
  9
$ORTHOMODE
 70
     0
  9
$REGENMODE
 70
     1
  9
$FILLMODE
 70
     1
  9
$QTEXTMODE
 70
     0
  9
$MIRRTEXT
 70
     1
  9
$DRAGMODE
 70
     2
  9
$LTSCALE
 40
1.0
  9
$OSMODE
 70
     0
  9
$ATTMODE
 70
     1
  9
$TEXTSIZE
 40
0.2
  9
$TRACEWID
 40
0.05
  9
$TEXTSTYLE
  7
STANDARD
  9
$CLAYER
  8
0
  9
$CELTYPE
  6
BYLAYER
  9
$CECOLOR
 62
   256
  9
$DIMSCALE
 40
1.0
  9
$DIMASZ
 40
0.18
  9
$DIMEXO
 40
0.0625
  9
$DIMDLI
 40
0.38
  9
$DIMRND
 40
0.0
  9
$DIMDLE
 40
0.0
  9
$DIMEXE
 40
0.18
  9
$DIMTP
 40
0.0
  9
$DIMTM
 40
0.0
  9
$DIMTXT
 40
0.18
  9
$DIMCEN
 40
0.09
  9
$DIMTSZ
 40
0.0
  9
$DIMTOL
 70
     0
  9
$DIMLIM
 70
     0
  9
$DIMTIH
 70
     1
  9
$DIMTOH
 70
     1
  9
$DIMSE1
 70
     0
  9
$DIMSE2
 70
     0
  9
$DIMTAD
 70
     0
  9
$DIMZIN
 70
     0
  9
$DIMBLK
  1

  9
$DIMASO
 70
     1
  9
$DIMSHO
 70
     1
  9
$DIMPOST
  1

  9
$DIMAPOST
  1

  9
$DIMALT
 70
     0
  9
$DIMALTD
 70
     2
  9
$DIMALTF
 40
25.4
  9
$DIMLFAC
 40
1.0
  9
$DIMTOFL
 70
     0
  9
$DIMTVP
 40
0.0
  9
$DIMTIX
 70
     0
  9
$DIMSOXD
 70
     0
  9
$DIMSAH
 70
     0
  9
$DIMBLK1
  1

  9
$DIMBLK2
  1

  9
$DIMSTYLE
  2
*UNNAMED
  9
$DIMCLRD
 70
     0
  9
$DIMCLRE
 70
     0
  9
$DIMCLRT
 70
     0
  9
$DIMTFAC
 40
1.0
  9
$DIMGAP
 40
0.09
  9
$LUNITS
 70
     2
  9
$LUPREC
 70
     4
  9
$SKETCHINC
 40
0.1
  9
$FILLETRAD
 40
0.0
  9
$AUNITS
 70
     0
  9
$AUPREC
 70
     0
  9
$MENU
  1
acad
  9
$ELEVATION
 40
0.0
  9
$PELEVATION
 40
0.0
  9
$THICKNESS
 40
0.0
  9
$LIMCHECK
 70
     0
  9
$BLIPMODE
 70
     1
  9
$CHAMFERA
 40
0.0
  9
$CHAMFERB
 40
0.0
  9
$SKPOLY
 70
     0
  9
$TDCREATE
 40
2448315.373408102
  9
$TDUPDATE
 40
2448315.373408102
  9
$TDINDWG
 40
0.0000000000
  9
$TDUSRTIMER
 40
0.0000000000
  9
$USRTIMER
 70
     1
  9
$ANGBASE
 50
0.0
  9
$ANGDIR
 70
     0
  9
$PDMODE
 70
     0
  9
$PDSIZE
 40
0.0
  9
$PLINEWID
 40
0.0
  9
$COORDS
 70
     0
  9
$SPLFRAME
 70
     0
  9
$SPLINETYPE
 70
     6
  9
$SPLINESEGS
 70
     8
  9
$ATTDIA
 70
     0
  9
$ATTREQ
 70
     1
  9
$HANDLING
 70
     0
  9
$HANDSEED
  5
0
  9
$SURFTAB1
 70
     6
  9
$SURFTAB2
 70
     6
  9
$SURFTYPE
 70
     6
  9
$SURFU
 70
     6
  9
$SURFV
 70
     6
  9
$UCSNAME
  2

  9
$UCSORG
 10
0.0
 20
0.0
 30
0.0
  9
$UCSXDIR
 10
1.0
 20
0.0
 30
0.0
  9
$UCSYDIR
 10
0.0
 20
1.0
 30
0.0
  9
$PUCSNAME
  2

  9
$PUCSORG
 10
0.0
 20
0.0
 30
0.0
  9
$PUCSXDIR
 10
1.0
 20
0.0
 30
0.0
  9
$PUCSYDIR
 10
0.0
 20
1.0
 30
0.0
  9
$USERI1
 70
     0
  9
$USERI2
 70
     0
  9
$USERI3
 70
     0
  9
$USERI4
 70
     0
  9
$USERI5
 70
     0
  9
$USERR1
 40
0.0
  9
$USERR2
 40
0.0
  9
$USERR3
 40
0.0
  9
$USERR4
 40
0.0
  9
$USERR5
 40
0.0
  9
$WORLDVIEW
 70
     1
  9
$SHADEDGE
 70
     3
  9
$SHADEDIF
 70
    70
  9
$TILEMODE
 70
     1
  9
$MAXACTVP
 70
    16
  9
$PINSBASE
 10
0.0
 20
0.0
 30
0.0
  9
$PLIMCHECK
 70
     0
  9
$PEXTMIN
 10
1.000000E+20
 20
1.000000E+20
 30
1.000000E+20
  9
$PEXTMAX
 10
-1.000000E+20
 20
-1.000000E+20
 30
-1.000000E+20
  9
$PLIMMIN
 10
0.0
 20
0.0
  9
$PLIMMAX
 10
12.0
 20
9.0
  9
$UNITMODE
 70
     0
  9
$VISRETAIN
 70
     0
  9
$PLINEGEN
 70
     0
  9
$PSLTSCALE
 70
     0
  9
$TREEDEPTH
 70
  3020
  9
$DWGCODEPAGE
  3
iso8859-1
  0
ENDSEC
  0
SECTION
  2
TABLES
  0
TABLE
  2
VPORT
 70
     2
  0
VPORT
  2
*ACTIVE
 70
     0
 10
0.0
 20
0.0
 11
1.0
 21
1.0
 12
293.163362
 22
36.822
 13
0.0
 23
0.0
 14
1.0
 24
1.0
 15
10.0
 25
10.0
 16
0.0
 26
0.0
 36
1.0
 17
0.0
 27
0.0
 37
0.0
 40
15.85
 41
1.611024
 42
50.0
 43
0.0
 44
0.0
 50
0.0
 51
0.0
 71
     0
 72
   100
 73
     1
 74
     0
 75
     0
 76
     0
 77
     0
 78
     0
  0
ENDTAB
  0
TABLE
  2
LTYPE
 70
     1
  0
LTYPE
  2
CONTINUOUS
 70
    64
  3
Solid line
 72
    65
 73
     0
 40
0.0
  0
ENDTAB
  0
TABLE
  2
LAYER
 70
     8
  0
LAYER
  2
0
 70
    64
 62
     7
  6
CONTINUOUS
  0
LAYER
  2
1
 70
    64
 62
     7
  6
CONTINUOUS
  0
LAYER
  2
7
 70
    64
 62
     7
  6
CONTINUOUS
  0
LAYER
  2
8
 70
    64
 62
     7
  6
CONTINUOUS
  0
LAYER
  2
9
 70
    64
 62
     7
  6
CONTINUOUS
  0
LAYER
  2
22
 70
    64
 62
     7
  6
CONTINUOUS
  0
LAYER
  2
25
 70
    64
 62
     7
  6
CONTINUOUS
  0
LAYER
  2
DEFPOINTS
 70
    64
 62
     7
  6
CONTINUOUS
  0
ENDTAB
  0
TABLE
  2
STYLE
 70
     2
  0
STYLE
  2
STANDARD
 70
     0
 40
0.0
 41
1.0
 50
0.0
 71
     0
 42
3.5
  3
txt
  4

  0
STYLE
  2
ROMANC
 70
     0
 40
0.0
 41
1.0
 50
0.0
 71
     0
 42
0.2
  3
ROMANC
  4

  0
ENDTAB
  0
TABLE
  2
VIEW
 70
     0
  0
ENDTAB
  0
TABLE
  2
UCS
 70
     0
  0
ENDTAB
  0
TABLE
  2
APPID
 70
     1
  0
APPID
  2
ACAD
 70
    64
  0
ENDTAB
  0
TABLE
  2
DIMSTYLE
 70
     0
  0
ENDTAB
  0
ENDSEC
  0
SECTION
  2
BLOCKS
  0
BLOCK
  8
0
  2
*D0
 70
    65
 10
0.0
 20
0.0
 30
0.0
  3
*D
  0
LINE
  8
0
  6
BYBLOCK
 62
     0
 10
285.828
 20
34.251917
 30
0.0
 11
285.828
 21
35.149324
 31
0.0
  0
LINE
  8
0
  6
BYBLOCK
 62
     0
 10
286.747
 20
34.2495
 30
0.0
 11
286.747
 21
35.149324
 31
0.0
  0
LINE
  8
0
  6
BYBLOCK
 62
     0
 10
285.648
 20
34.969324
 30
0.0
 11
285.468
 21
34.969324
 31
0.0
  0
LINE
  8
0
  6
BYBLOCK
 62
     0
 10
286.927
 20
34.969324
 30
0.0
 11
287.107
 21
34.969324
 31
0.0
  0
SOLID
  8
0
  6
BYBLOCK
 62
     0
 10
285.648
 20
34.999324
 30
0.0
 11
285.648
 21
34.939324
 31
0.0
 12
285.828
 22
34.969324
 32
0.0
 13
285.828
 23
34.969324
 33
0.0
  0
SOLID
  8
0
  6
BYBLOCK
 62
     0
 10
286.927
 20
34.999324
 30
0.0
 11
286.927
 21
34.939324
 31
0.0
 12
286.747
 22
34.969324
 32
0.0
 13
286.747
 23
34.969324
 33
0.0
  0
TEXT
  8
0
  6
BYBLOCK
 62
     0
 10
287.197
 20
34.879324
 30
0.0
 40
0.18
  1
0.9190
 72
     1
 11
287.587
 21
34.969324
 31
0.0
 73
     2
  0
POINT
  8
DEFPOINTS
  6
BYBLOCK
 62
     0
 10
285.828
 20
34.189417
 30
0.0
  0
POINT
  8
DEFPOINTS
  6
BYBLOCK
 62
     0
 10
286.747
 20
34.187
 30
0.0
  0
POINT
  8
DEFPOINTS
  6
BYBLOCK
 62
     0
 10
286.747
 20
34.969324
 30
0.0
  0
ENDBLK
  8
0
  0
ENDSEC
  0
SECTION
  2
ENTITIES
  0
TEXT
  8
0
  6
CONTINUOUS
 10
286.909
 20
41.324
 30
0.0
 40
0.1
  1
2
  7
ROMANC
  0
TEXT
  8
0
  6
CONTINUOUS
 10
283.926
 20
41.768
 30
0.0
 40
0.3
  1
ESCALA  1:50
  7
ROMANC
  0
POLYLINE
  8
0
  6
CONTINUOUS
 66
     1
 10
0.0
 20
0.0
 30
0.0
 70
     1
  0
VERTEX
  8
0
  6
CONTINUOUS
 10
281.396
 20
44.747
 30
0.0
  0
VERTEX
  8
0
  6
CONTINUOUS
 10
291.896
 20
44.747
 30
0.0
  0
VERTEX
  8
0
  6
CONTINUOUS
 10
291.896
 20
29.897
 30
0.0
  0
VERTEX
  8
0
  6
CONTINUOUS
 10
281.396
 20
29.897
 30
0.0
  0
SEQEND
  8
0
  0
TEXT
  8
0
  6
CONTINUOUS
 10
283.926
 20
42.381
 30
0.0
 40
0.3
  1
TIPUS   T111A
  7
ROMANC
  0
ARC
  8
1
  6
CONTINUOUS
 10
286.288
 20
34.189
 30
0.0
 40
0.45
 50
0.0
 51
180.0
  0
TEXT
  8
0
  6
CONTINUOUS
 10
283.922
 20
40.529
 30
0.0
 40
0.3
  1
P = 43 dm
  7
ROMANC
  0
TEXT
  8
0
  6
CONTINUOUS
 10
283.945
 20
41.099
 30
0.0
 40
0.3
  1
S = 118 dm
  7
ROMANC
  0
LINE
  8
1
  6
CONTINUOUS
 10
285.958
 20
33.139
 30
0.0
 11
285.838
 21
34.189
 31
0.0
  0
ARC
  8
1
  6
CONTINUOUS
 10
286.288
 20
33.225333
 30
0.0
 40
0.236333
 50
201.426247
 51
338.573756
  0
TEXT
  8
1
  6
CONTINUOUS
 10
285.57
 20
32.798
 30
0.0
 40
0.075
  1
0.11
  7
ROMANC
  0
LINE
  8
1
  6
CONTINUOUS
 10
285.885
 20
32.836
 30
0.0
 11
285.958
 21
32.836
 31
0.0
  0
LINE
  8
1
  6
CONTINUOUS
 10
286.218
 20
32.836
 30
0.0
 11
286.068
 21
32.836
 31
0.0
  0
LINE
  8
1
  6
CONTINUOUS
 10
285.996
 20
32.855
 30
0.0
 11
285.92
 21
32.817
 31
0.0
  0
LINE
  8
1
  6
CONTINUOUS
 10
286.03
 20
32.817
 30
0.0
 11
286.106
 21
32.855
 31
0.0
  0
LINE
  8
1
  6
CONTINUOUS
 10
285.958
 20
33.101
 30
0.0
 11
285.958
 21
32.798
 31
0.0
  0
LINE
  8
1
  6
CONTINUOUS
 10
286.068
 20
33.101
 30
0.0
 11
286.068
 21
32.798
 31
0.0
  0
LINE
  8
1
  6
CONTINUOUS
 10
286.618
 20
33.139
 30
0.0
 11
286.508
 21
33.139
 31
0.0
  0
TEXT
  8
1
  6
CONTINUOUS
 10
286.836
 20
32.798
 30
0.0
 40
0.075
  1
0.11
  7
ROMANC
  0
LINE
  8
1
  6
CONTINUOUS
 10
286.358
 20
32.836
 30
0.0
 11
286.508
 21
32.836
 31
0.0
  0
LINE
  8
1
  6
CONTINUOUS
 10
286.798
 20
32.836
 30
0.0
 11
286.618
 21
32.836
 31
0.0
  0
LINE
  8
1
  6
CONTINUOUS
 10
286.546
 20
32.855
 30
0.0
 11
286.47
 21
32.817
 31
0.0
  0
LINE
  8
1
  6
CONTINUOUS
 10
286.58
 20
32.817
 30
0.0
 11
286.656
 21
32.855
 31
0.0
  0
LINE
  8
1
  6
CONTINUOUS
 10
286.508
 20
33.101
 30
0.0
 11
286.508
 21
32.798
 31
0.0
  0
LINE
  8
1
  6
CONTINUOUS
 10
286.618
 20
33.101
 30
0.0
 11
286.618
 21
32.798
 31
0.0
  0
TEXT
  8
1
  6
CONTINUOUS
 10
286.162
 20
32.656
 30
0.0
 40
0.075
  1
0.44
  7
ROMANC
  0
LINE
  8
1
  6
CONTINUOUS
 10
285.918
 20
32.693
 30
0.0
 11
286.068
 21
32.693
 31
0.0
  0
LINE
  8
1
  6
CONTINUOUS
 10
286.658
 20
32.693
 30
0.0
 11
286.508
 21
32.693
 31
0.0
  0
LINE
  8
1
  6
CONTINUOUS
 10
286.106
 20
32.712
 30
0.0
 11
286.03
 21
32.674
 31
0.0
  0
LINE
  8
1
  6
CONTINUOUS
 10
286.47
 20
32.674
 30
0.0
 11
286.546
 21
32.712
 31
0.0
  0
LINE
  8
1
  6
CONTINUOUS
 10
286.068
 20
33.101
 30
0.0
 11
286.068
 21
32.655
 31
0.0
  0
LINE
  8
1
  6
CONTINUOUS
 10
286.508
 20
33.101
 30
0.0
 11
286.508
 21
32.655
 31
0.0
  0
LINE
  8
1
  6
CONTINUOUS
 10
286.068
 20
33.139
 30
0.0
 11
285.958
 21
33.139
 31
0.0
  0
LINE
  8
1
  6
CONTINUOUS
 10
286.738
 20
34.189
 30
0.0
 11
286.618
 21
33.139
 31
0.0
  0
TEXT
  8
1
  6
CONTINUOUS
 10
286.169
 20
32.488
 30
0.0
 40
0.075
  1
0.66
  7
ROMANC
  0
LINE
  8
1
  6
CONTINUOUS
 10
286.131
 20
32.525
 30
0.0
 11
285.958
 21
32.525
 31
0.0
  0
LINE
  8
1
  6
CONTINUOUS
 10
286.443
 20
32.525
 30
0.0
 11
286.618
 21
32.525
 31
0.0
  0
LINE
  8
1
  6
CONTINUOUS
 10
285.92
 20
32.506
 30
0.0
 11
285.996
 21
32.544
 31
0.0
  0
LINE
  8
1
  6
CONTINUOUS
 10
286.656
 20
32.544
 30
0.0
 11
286.58
 21
32.506
 31
0.0
  0
LINE
  8
1
  6
CONTINUOUS
 10
285.958
 20
33.101
 30
0.0
 11
285.958
 21
32.487
 31
0.0
  0
LINE
  8
1
  6
CONTINUOUS
 10
286.618
 20
33.101
 30
0.0
 11
286.618
 21
32.487
 31
0.0
  0
TEXT
  8
1
  6
CONTINUOUS
 10
286.82
 20
33.392
 30
0.0
 40
0.075
  1
0.15
 50
90.0
  7
ROMANC
  0
LINE
  8
1
  6
CONTINUOUS
 10
286.782
 20
32.839
 30
0.0
 11
286.782
 21
32.989
 31
0.0
  0
LINE
  8
1
  6
CONTINUOUS
 10
286.782
 20
33.354
 30
0.0
 11
286.782
 21
33.139
 31
0.0
  0
LINE
  8
1
  6
CONTINUOUS
 10
286.763
 20
33.026
 30
0.0
 11
286.801
 21
32.952
 31
0.0
  0
LINE
  8
1
  6
CONTINUOUS
 10
286.801
 20
33.102
 30
0.0
 11
286.763
 21
33.176
 31
0.0
  0
LINE
  8
1
  6
CONTINUOUS
 10
286.326
 20
32.989
 30
0.0
 11
286.82
 21
32.989
 31
0.0
  0
LINE
  8
1
  6
CONTINUOUS
 10
286.656
 20
33.139
 30
0.0
 11
286.82
 21
33.139
 31
0.0
  0
TEXT
  8
1
  6
CONTINUOUS
 10
287.004
 20
33.554
 30
0.0
 40
0.075
  1
1.05
 50
90.0
  7
ROMANC
  0
LINE
  8
1
  6
CONTINUOUS
 10
286.967
 20
33.516
 30
0.0
 11
286.967
 21
33.139
 31
0.0
  0
LINE
  8
1
  6
CONTINUOUS
 10
286.967
 20
33.811
 30
0.0
 11
286.967
 21
34.189
 31
0.0
  0
LINE
  8
1
  6
CONTINUOUS
 10
286.986
 20
33.102
 30
0.0
 11
286.948
 21
33.176
 31
0.0
  0
LINE
  8
1
  6
CONTINUOUS
 10
286.948
 20
34.226
 30
0.0
 11
286.986
 21
34.152
 31
0.0
  0
LINE
  8
1
  6
CONTINUOUS
 10
286.656
 20
33.139
 30
0.0
 11
287.005
 21
33.139
 31
0.0
  0
LINE
  8
1
  6
CONTINUOUS
 10
286.776
 20
34.189
 30
0.0
 11
287.005
 21
34.189
 31
0.0
  0
TEXT
  8
1
  6
CONTINUOUS
 10
287.004
 20
34.292
 30
0.0
 40
0.075
  1
0.45
 50
90.0
  7
ROMANC
  0
LINE
  8
1
  6
CONTINUOUS
 10
286.967
 20
34.039
 30
0.0
 11
286.967
 21
34.189
 31
0.0
  0
LINE
  8
1
  6
CONTINUOUS
 10
286.967
 20
34.789
 30
0.0
 11
286.967
 21
34.639
 31
0.0
  0
LINE
  8
1
  6
CONTINUOUS
 10
286.948
 20
34.226
 30
0.0
 11
286.986
 21
34.152
 31
0.0
  0
LINE
  8
1
  6
CONTINUOUS
 10
286.986
 20
34.602
 30
0.0
 11
286.948
 21
34.676
 31
0.0
  0
LINE
  8
1
  6
CONTINUOUS
 10
286.326
 20
34.639
 30
0.0
 11
287.005
 21
34.639
 31
0.0
  0
TEXT
  8
1
  6
CONTINUOUS
 10
287.202
 20
33.704
 30
0.0
 40
0.075
  1
1.65
 50
90.0
  7
ROMANC
  0
LINE
  8
1
  6
CONTINUOUS
 10
287.165
 20
33.666
 30
0.0
 11
287.165
 21
32.989
 31
0.0
  0
LINE
  8
1
  6
CONTINUOUS
 10
287.165
 20
33.961
 30
0.0
 11
287.165
 21
34.639
 31
0.0
  0
LINE
  8
1
  6
CONTINUOUS
 10
287.184
 20
32.952
 30
0.0
 11
287.146
 21
33.026
 31
0.0
  0
LINE
  8
1
  6
CONTINUOUS
 10
287.146
 20
34.676
 30
0.0
 11
287.184
 21
34.602
 31
0.0
  0
LINE
  8
1
  6
CONTINUOUS
 10
286.326
 20
32.989
 30
0.0
 11
287.203
 21
32.989
 31
0.0
  0
LINE
  8
1
  6
CONTINUOUS
 10
286.326
 20
34.639
 30
0.0
 11
287.203
 21
34.639
 31
0.0
  0
LINE
  8
1
  6
CONTINUOUS
 10
286.747
 20
34.187
 30
0.0
 11
286.626
 21
33.129
 31
0.0
  0
LINE
  8
1
  6
CONTINUOUS
 10
286.757
 20
34.186
 30
0.0
 11
286.635
 21
33.119
 31
0.0
  0
LINE
  8
1
  6
CONTINUOUS
 10
286.626
 20
33.129
 30
0.0
 11
286.515
 21
33.129
 31
0.0
  0
LINE
  8
1
  6
CONTINUOUS
 10
286.635
 20
33.119
 30
0.0
 11
286.521
 21
33.119
 31
0.0
  0
ARC
  8
1
  6
CONTINUOUS
 10
286.288
 20
33.225333
 30
0.0
 40
0.246333
 50
203.021033
 51
336.978967
  0
ARC
  8
1
  6
CONTINUOUS
 10
286.288
 20
33.225333
 30
0.0
 40
0.256333
 50
204.508261
 51
335.491739
  0
LINE
  8
1
  6
CONTINUOUS
 10
286.061
 20
33.129
 30
0.0
 11
285.949
 21
33.129
 31
0.0
  0
LINE
  8
1
  6
CONTINUOUS
 10
286.055
 20
33.119
 30
0.0
 11
285.94
 21
33.119
 31
0.0
  0
LINE
  8
1
  6
CONTINUOUS
 10
285.949
 20
33.129
 30
0.0
 11
285.828
 21
34.187
 31
0.0
  0
LINE
  8
1
  6
CONTINUOUS
 10
285.94
 20
33.119
 30
0.0
 11
285.818
 21
34.186
 31
0.0
  0
ARC
  8
1
  6
CONTINUOUS
 10
286.288
 20
34.189
 30
0.0
 40
0.46
 50
0.0
 51
180.0
  0
ARC
  8
1
  6
CONTINUOUS
 10
286.288
 20
34.189
 30
0.0
 40
0.47
 50
0.0
 51
180.0
  0
LINE
  8
0
  6
BYBLOCK
 62
     0
 10
285.828
 20
34.251917
 30
0.0
 11
285.828
 21
35.149324
 31
0.0
  0
LINE
  8
0
  6
BYBLOCK
 62
     0
 10
286.747
 20
34.2495
 30
0.0
 11
286.747
 21
35.149324
 31
0.0
  0
LINE
  8
0
  6
BYBLOCK
 62
     0
 10
286.091859
 20
34.969324
 30
0.0
 11
285.828
 21
34.969324
 31
0.0
  0
LINE
  8
0
  6
BYBLOCK
 62
     0
 10
286.424089
 20
34.969324
 30
0.0
 11
286.747
 21
34.969324
 31
0.0
  0
TEXT
  8
0
  6
BYBLOCK
 62
     0
 10
286.168382
 20
34.941163
 30
0.0
 40
0.072689
  1
0.90
 72
     4
 11
286.2653
 21
34.977507
 31
0.0
  0
POINT
  8
DEFPOINTS
  6
BYBLOCK
 62
     0
 10
285.828
 20
34.189417
 30
0.0
  0
POINT
  8
DEFPOINTS
  6
BYBLOCK
 62
     0
 10
286.747
 20
34.187
 30
0.0
  0
POINT
  8
DEFPOINTS
  6
BYBLOCK
 62
     0
 10
286.747
 20
34.969324
 30
0.0
  0
LINE
  8
1
  6
CONTINUOUS
 10
286.728001
 20
35.000945
 30
0.0
 11
286.766001
 21
34.926945
 31
0.0
  0
LINE
  8
1
  6
CONTINUOUS
 10
285.808672
 20
35.008537
 30
0.0
 11
285.846672
 21
34.934537
 31
0.0
  0
ENDSEC
  0
EOF
