  0
SECTION
  2
HEADER
  9
$ACADVER
  1
AC1014
  9
$ACADMAINTVER
 70
     9
  9
$DWGCODEPAGE
  3
ANSI_1252
  9
$INSBASE
 10
0.0
 20
0.0
 30
0.0
  9
$EXTMIN
 10
281.3935173646303
 20
29.89437729047563
 30
-0.0015258207003583
  9
$EXTMAX
 10
291.9049086386179
 20
44.74836567425467
 30
0.0000000349246037
  9
$LIMMIN
 10
0.0
 20
0.0
  9
$LIMMAX
 10
12.0
 20
9.0
  9
$ORTHOMODE
 70
     0
  9
$REGENMODE
 70
     1
  9
$FILLMODE
 70
     1
  9
$QTEXTMODE
 70
     0
  9
$MIRRTEXT
 70
     1
  9
$DRAGMODE
 70
     2
  9
$LTSCALE
 40
1.0
  9
$OSMODE
 70
    37
  9
$ATTMODE
 70
     1
  9
$TEXTSIZE
 40
0.0
  9
$TRACEWID
 40
0.05
  9
$TEXTSTYLE
  7
STANDARD
  9
$CLAYER
  8
0
  9
$CELTYPE
  6
CONTINUOUS
  9
$CECOLOR
 62
   256
  9
$CELTSCALE
 40
1.0
  9
$DELOBJ
 70
     1
  9
$DISPSILH
 70
     0
  9
$DIMSCALE
 40
1.0
  9
$DIMASZ
 40
0.18
  9
$DIMEXO
 40
0.0625
  9
$DIMDLI
 40
0.38
  9
$DIMRND
 40
0.0
  9
$DIMDLE
 40
0.0
  9
$DIMEXE
 40
0.18
  9
$DIMTP
 40
0.0
  9
$DIMTM
 40
0.0
  9
$DIMTXT
 40
0.18
  9
$DIMCEN
 40
0.09
  9
$DIMTSZ
 40
0.0
  9
$DIMTOL
 70
     0
  9
$DIMLIM
 70
     0
  9
$DIMTIH
 70
     1
  9
$DIMTOH
 70
     1
  9
$DIMSE1
 70
     0
  9
$DIMSE2
 70
     0
  9
$DIMTAD
 70
     0
  9
$DIMZIN
 70
     0
  9
$DIMBLK
  1

  9
$DIMASO
 70
     1
  9
$DIMSHO
 70
     1
  9
$DIMPOST
  1

  9
$DIMAPOST
  1

  9
$DIMALT
 70
     0
  9
$DIMALTD
 70
     2
  9
$DIMALTF
 40
25.4
  9
$DIMLFAC
 40
1.0
  9
$DIMTOFL
 70
     0
  9
$DIMTVP
 40
0.0
  9
$DIMTIX
 70
     0
  9
$DIMSOXD
 70
     0
  9
$DIMSAH
 70
     0
  9
$DIMBLK1
  1

  9
$DIMBLK2
  1

  9
$DIMSTYLE
  2
STANDARD
  9
$DIMCLRD
 70
     0
  9
$DIMCLRE
 70
     0
  9
$DIMCLRT
 70
     0
  9
$DIMTFAC
 40
1.0
  9
$DIMGAP
 40
0.09
  9
$DIMJUST
 70
     0
  9
$DIMSD1
 70
     0
  9
$DIMSD2
 70
     0
  9
$DIMTOLJ
 70
     1
  9
$DIMTZIN
 70
     0
  9
$DIMALTZ
 70
     0
  9
$DIMALTTZ
 70
     0
  9
$DIMFIT
 70
     5
  9
$DIMUPT
 70
     0
  9
$DIMUNIT
 70
     2
  9
$DIMDEC
 70
     4
  9
$DIMTDEC
 70
     4
  9
$DIMALTU
 70
     2
  9
$DIMALTTD
 70
     2
  9
$DIMTXSTY
  7
STANDARD
  9
$DIMAUNIT
 70
     0
  9
$LUNITS
 70
     2
  9
$LUPREC
 70
     4
  9
$SKETCHINC
 40
0.1
  9
$FILLETRAD
 40
0.0
  9
$AUNITS
 70
     0
  9
$AUPREC
 70
     0
  9
$MENU
  1
acad
  9
$ELEVATION
 40
0.0
  9
$PELEVATION
 40
0.0
  9
$THICKNESS
 40
0.0
  9
$LIMCHECK
 70
     0
  9
$BLIPMODE
 70
     0
  9
$CHAMFERA
 40
0.0
  9
$CHAMFERB
 40
0.0
  9
$CHAMFERC
 40
0.0
  9
$CHAMFERD
 40
0.0
  9
$SKPOLY
 70
     0
  9
$TDCREATE
 40
2452340.447685185
  9
$TDUPDATE
 40
2452340.448108032
  9
$TDINDWG
 40
0.0002609606
  9
$TDUSRTIMER
 40
0.0002609606
  9
$USRTIMER
 70
     1
  9
$ANGBASE
 50
0.0
  9
$ANGDIR
 70
     0
  9
$PDMODE
 70
     0
  9
$PDSIZE
 40
0.0
  9
$PLINEWID
 40
0.0
  9
$COORDS
 70
     1
  9
$SPLFRAME
 70
     0
  9
$SPLINETYPE
 70
     6
  9
$SPLINESEGS
 70
    10
  9
$ATTDIA
 70
     0
  9
$ATTREQ
 70
     1
  9
$HANDLING
 70
 10241
  9
$HANDSEED
  5
E2
  9
$SURFTAB1
 70
     6
  9
$SURFTAB2
 70
     6
  9
$SURFTYPE
 70
     6
  9
$SURFU
 70
     6
  9
$SURFV
 70
     6
  9
$UCSNAME
  2

  9
$UCSORG
 10
0.0
 20
0.0
 30
0.0
  9
$UCSXDIR
 10
1.0
 20
0.0
 30
0.0
  9
$UCSYDIR
 10
0.0
 20
1.0
 30
0.0
  9
$PUCSNAME
  2

  9
$PUCSORG
 10
0.0
 20
0.0
 30
0.0
  9
$PUCSXDIR
 10
1.0
 20
0.0
 30
0.0
  9
$PUCSYDIR
 10
0.0
 20
1.0
 30
0.0
  9
$USERI1
 70
     0
  9
$USERI2
 70
     0
  9
$USERI3
 70
     0
  9
$USERI4
 70
     0
  9
$USERI5
 70
     0
  9
$USERR1
 40
0.0
  9
$USERR2
 40
0.0
  9
$USERR3
 40
0.0
  9
$USERR4
 40
0.0
  9
$USERR5
 40
0.0
  9
$WORLDVIEW
 70
     1
  9
$SHADEDGE
 70
     3
  9
$SHADEDIF
 70
    70
  9
$TILEMODE
 70
     1
  9
$MAXACTVP
 70
    16
  9
$PINSBASE
 10
0.0
 20
0.0
 30
0.0
  9
$PLIMCHECK
 70
     0
  9
$PEXTMIN
 10
-1.000000000000000E+20
 20
-1.000000000000000E+20
 30
-1.000000000000000E+20
  9
$PEXTMAX
 10
-1.000000000000000E+20
 20
-1.000000000000000E+20
 30
-1.000000000000000E+20
  9
$PLIMMIN
 10
0.0
 20
0.0
  9
$PLIMMAX
 10
12.0
 20
9.0
  9
$UNITMODE
 70
     0
  9
$VISRETAIN
 70
     0
  9
$PLINEGEN
 70
     1
  9
$PSLTSCALE
 70
     0
  9
$TREEDEPTH
 70
  3020
  9
$PICKSTYLE
 70
     1
  9
$CMLSTYLE
  2
STANDARD
  9
$CMLJUST
 70
     0
  9
$CMLSCALE
 40
1.0
  9
$PROXYGRAPHICS
 70
     1
  9
$MEASUREMENT
 70
     0
  0
ENDSEC
  0
SECTION
  2
CLASSES
  0
CLASS
  1
ACDBDICTIONARYWDFLT
  2
AcDbDictionaryWithDefault
  3
AutoCAD 2000
 90
        0
280
     0
281
     0
  0
CLASS
  1
ACDBPLACEHOLDER
  2
AcDbPlaceHolder
  3
AutoCAD 2000
 90
        0
280
     0
281
     0
  0
CLASS
  1
LAYOUT
  2
AcDbLayout
  3
AutoCAD 2000
 90
        0
280
     0
281
     0
  0
CLASS
  1
LONG_TRANSACTION
  2
AcDbLongTransaction
  3
AutoCAD 2000
 90
        0
280
     0
281
     0
  0
CLASS
  1
LWPOLYLINE
  2
AcDbPolyline
  3
AutoCAD 2000
 90
        0
280
     0
281
     1
  0
CLASS
  1
HATCH
  2
AcDbHatch
  3
AutoCAD 2000
 90
        0
280
     0
281
     1
  0
CLASS
  1
XRECORD
  2
AcDbXrecord
  3
AutoCAD 2000
 90
        0
280
     0
281
     0
  0
ENDSEC
  0
SECTION
  2
TABLES
  0
TABLE
  2
VPORT
  5
8F
330
0
100
AcDbSymbolTable
 70
     2
  0
VPORT
  5
BC
330
8F
100
AcDbSymbolTableRecord
100
AcDbViewportTableRecord
  2
*ACTIVE
 70
     0
 10
0.0
 20
0.0
 11
1.0
 21
1.0
 12
1.12218405724269
 22
-0.0001285176348489
 13
0.0
 23
0.0
 14
0.0
 24
0.0
 15
0.0
 25
0.0
 16
0.0
 26
0.0
 36
1.0
 17
285.5270289443814
 27
37.3215
 37
0.0
 40
14.96898700352442
 41
1.516795865633074
 42
50.0
 43
0.0
 44
0.0
 50
0.0
 51
0.0
 71
     0
 72
   100
 73
     1
 74
     0
 75
     0
 76
     0
 77
     0
 78
     0
  0
ENDTAB
  0
TABLE
  2
LTYPE
  5
8C
330
0
100
AcDbSymbolTable
 70
     7
  0
LTYPE
  5
9A
330
8C
100
AcDbSymbolTableRecord
100
AcDbLinetypeTableRecord
  2
BYBLOCK
 70
     0
  3

 72
    65
 73
     0
 40
0.0
  0
LTYPE
  5
9B
330
8C
100
AcDbSymbolTableRecord
100
AcDbLinetypeTableRecord
  2
BYLAYER
 70
     0
  3

 72
    65
 73
     0
 40
0.0
  0
LTYPE
  5
9C
330
8C
100
AcDbSymbolTableRecord
100
AcDbLinetypeTableRecord
  2
CONTINUOUS
 70
     0
  3
Solid line
 72
    65
 73
     0
 40
0.0
  0
LTYPE
  5
AA
330
8C
100
AcDbSymbolTableRecord
100
AcDbLinetypeTableRecord
  2
DOT
 70
     0
  3
. . . . . . . . . . . . . . . . . . . . . . . .
 72
    65
 73
     2
 40
0.25
 49
0.0
 74
     0
 49
-0.25
 74
     0
  0
LTYPE
  5
AB
330
8C
100
AcDbSymbolTableRecord
100
AcDbLinetypeTableRecord
  2
HIDDEN
 70
     0
  3
__ __ __ __ __ __ __ __ __ __ __ __ __ __ __ __
 72
    65
 73
     2
 40
0.375
 49
0.25
 74
     0
 49
-0.125
 74
     0
  0
LTYPE
  5
AC
330
8C
100
AcDbSymbolTableRecord
100
AcDbLinetypeTableRecord
  2
DASHED
 70
     0
  3
__ __ __ __ __ __ __ __ __ __ __ __ __ __ __ __
 72
    65
 73
     2
 40
0.75
 49
0.5
 74
     0
 49
-0.25
 74
     0
  0
LTYPE
  5
AD
330
8C
100
AcDbSymbolTableRecord
100
AcDbLinetypeTableRecord
  2
DASHDOT
 70
     0
  3
__ . __ . __ . __ . __ . __ . __ . __ . __ . __
 72
    65
 73
     4
 40
1.0
 49
0.5
 74
     0
 49
-0.25
 74
     0
 49
0.0
 74
     0
 49
-0.25
 74
     0
  0
LTYPE
  5
AE
330
8C
100
AcDbSymbolTableRecord
100
AcDbLinetypeTableRecord
  2
DIVIDE
 70
     0
  3
____ . . ____ . . ____ . . ____ . . ____ . . __
 72
    65
 73
     6
 40
1.25
 49
0.5
 74
     0
 49
-0.25
 74
     0
 49
0.0
 74
     0
 49
-0.25
 74
     0
 49
0.0
 74
     0
 49
-0.25
 74
     0
  0
LTYPE
  5
AF
330
8C
100
AcDbSymbolTableRecord
100
AcDbLinetypeTableRecord
  2
CENTER
 70
     0
  3
____ _ ____ _ ____ _ ____ _ ____ _ ____ _ ____ 
 72
    65
 73
     4
 40
2.0
 49
1.25
 74
     0
 49
-0.25
 74
     0
 49
0.25
 74
     0
 49
-0.25
 74
     0
  0
ENDTAB
  0
TABLE
  2
LAYER
  5
89
330
0
100
AcDbSymbolTable
 70
     4
  0
LAYER
  5
97
330
89
100
AcDbSymbolTableRecord
100
AcDbLayerTableRecord
  2
0
 70
     0
 62
     7
  6
CONTINUOUS
  0
LAYER
  5
B2
330
89
100
AcDbSymbolTableRecord
100
AcDbLayerTableRecord
  2
CONSTRUCTION_CLASS
 70
     0
 62
     7
  6
CONTINUOUS
  0
LAYER
  5
B3
330
89
100
AcDbSymbolTableRecord
100
AcDbLayerTableRecord
  2
PATTERN_CLASS
 70
     0
 62
     7
  6
CONTINUOUS
  0
LAYER
  5
B4
330
89
100
AcDbSymbolTableRecord
100
AcDbLayerTableRecord
  2
1
 70
     0
 62
     7
  6
CONTINUOUS
  0
ENDTAB
  0
TABLE
  2
STYLE
  5
8A
330
0
100
AcDbSymbolTable
 70
     2
  0
STYLE
  5
98
330
8A
100
AcDbSymbolTableRecord
100
AcDbTextStyleTableRecord
  2
STANDARD
 70
     0
 40
0.0
 41
1.0
 50
0.0
 71
     0
 42
0.0
  3
txt
  4

  0
STYLE
  5
A9
330
8A
100
AcDbSymbolTableRecord
100
AcDbTextStyleTableRecord
  2
ROMANC
 70
     0
 40
0.2
 41
1.0
 50
0.0
 71
     0
 42
0.2
  3
ROMANC
  4

  0
ENDTAB
  0
TABLE
  2
VIEW
  5
8D
330
0
100
AcDbSymbolTable
 70
     0
  0
ENDTAB
  0
TABLE
  2
UCS
  5
8E
330
0
100
AcDbSymbolTable
 70
     0
  0
ENDTAB
  0
TABLE
  2
APPID
  5
90
330
0
100
AcDbSymbolTable
 70
     1
  0
APPID
  5
99
330
90
100
AcDbSymbolTableRecord
100
AcDbRegAppTableRecord
  2
ACAD
 70
     0
  0
ENDTAB
  0
TABLE
  2
DIMSTYLE
  5
91
330
0
100
AcDbSymbolTable
 70
     1
  0
DIMSTYLE
105
B1
330
91
100
AcDbSymbolTableRecord
100
AcDbDimStyleTableRecord
  2
STANDARD
 70
     0
  3

  4

  5

  6

  7

 40
1.0
 41
0.18
 42
0.0625
 43
0.38
 44
0.18
 45
0.0
 46
0.0
 47
0.0
 48
0.0
140
0.18
141
0.09
142
0.0
143
25.4
144
1.0
145
0.0
146
1.0
147
0.09
 71
     0
 72
     0
 73
     1
 74
     1
 75
     0
 76
     0
 77
     0
 78
     0
170
     0
171
     2
172
     0
173
     0
174
     0
175
     0
176
     0
177
     0
178
     0
270
     2
271
     4
272
     4
273
     2
274
     2
340
98
275
     0
280
     0
281
     0
282
     0
283
     1
284
     0
285
     0
286
     0
287
     5
288
     0
  0
ENDTAB
  0
TABLE
  2
BLOCK_RECORD
  5
88
330
0
100
AcDbSymbolTable
 70
     0
  0
BLOCK_RECORD
  5
A5
102
{ACAD_XDICTIONARY
360
E0
102
}
330
88
100
AcDbSymbolTableRecord
100
AcDbBlockTableRecord
  2
*MODEL_SPACE
  0
BLOCK_RECORD
  5
A1
102
{ACAD_XDICTIONARY
360
DE
102
}
330
88
100
AcDbSymbolTableRecord
100
AcDbBlockTableRecord
  2
*PAPER_SPACE
  0
ENDTAB
  0
ENDSEC
  0
SECTION
  2
BLOCKS
  0
BLOCK
  5
B7
330
A5
100
AcDbEntity
  8
0
100
AcDbBlockBegin
  2
*MODEL_SPACE
 70
     0
 10
0.0
 20
0.0
 30
0.0
  3
*MODEL_SPACE
  1

  0
ENDBLK
  5
B8
330
A5
100
AcDbEntity
  8
0
100
AcDbBlockEnd
  0
BLOCK
  5
B5
330
A1
100
AcDbEntity
 67
     1
  8
0
100
AcDbBlockBegin
  2
*PAPER_SPACE
 70
     0
 10
0.0
 20
0.0
 30
0.0
  3
*PAPER_SPACE
  1

  0
ENDBLK
  5
B6
330
A1
100
AcDbEntity
 67
     1
  8
0
100
AcDbBlockEnd
  0
ENDSEC
  0
SECTION
  2
ENTITIES
  0
TEXT
  5
29
330
A5
100
AcDbEntity
  8
0
  6
CONTINUOUS
 62
     7
100
AcDbText
 10
286.9089999999999
 20
41.32399999999999
 30
0.0
 40
0.1
  1
2
  7
ROMANC
100
AcDbText
  0
TEXT
  5
2A
330
A5
100
AcDbEntity
  8
0
  6
CONTINUOUS
 62
     7
100
AcDbText
 10
283.9259999999999
 20
41.768
 30
0.0
 40
0.3
  1
ESCALA  1:50
  7
ROMANC
100
AcDbText
  0
LWPOLYLINE
  5
2B
330
A5
100
AcDbEntity
  8
0
  6
CONTINUOUS
 62
     7
100
AcDbPolyline
 90
        4
 70
     1
 43
0.0
 10
281.396
 20
44.747
 10
291.896
 20
44.747
 10
291.896
 20
29.897
 10
281.396
 20
29.897
  0
TEXT
  5
31
330
A5
100
AcDbEntity
  8
0
  6
CONTINUOUS
 62
     7
100
AcDbText
 10
283.9259999999999
 20
42.381
 30
0.0
 40
0.3
  1
TIPUS   T111
  7
ROMANC
100
AcDbText
  0
TEXT
  5
32
330
A5
100
AcDbEntity
  8
0
  6
CONTINUOUS
 62
     7
100
AcDbText
 10
283.922
 20
40.529
 30
0.0
 40
0.3
  1
P = 42 dm
  7
ROMANC
100
AcDbText
  0
TEXT
  5
33
330
A5
100
AcDbEntity
  8
0
  6
CONTINUOUS
 62
     7
100
AcDbText
 10
283.9449999999999
 20
41.099
 30
0.0
 40
0.3
  1
S = 111 dm
  7
ROMANC
100
AcDbText
  0
LINE
  5
35
330
A5
100
AcDbEntity
  8
1
  6
CONTINUOUS
 62
     7
100
AcDbLine
 10
285.146
 20
35.643
 30
0.0
 11
285.2959999999999
 21
34.643
 31
0.0
  0
LINE
  5
36
330
A5
100
AcDbEntity
  8
1
  6
CONTINUOUS
 62
     7
100
AcDbLine
 10
285.2959999999999
 20
34.643
 30
0.0
 11
285.396
 21
34.643
 31
0.0
  0
TEXT
  5
37
330
A5
100
AcDbEntity
  8
1
  6
CONTINUOUS
 62
     7
100
AcDbText
 10
284.89
 20
34.386
 30
0.0
 40
0.075
  1
0.10
  7
ROMANC
100
AcDbText
  0
LINE
  5
38
330
A5
100
AcDbEntity
  8
1
  6
CONTINUOUS
 62
     7
100
AcDbLine
 10
285.223
 20
34.424
 30
0.0
 11
285.2959999999999
 21
34.424
 31
0.0
  0
LINE
  5
39
330
A5
100
AcDbEntity
  8
1
  6
CONTINUOUS
 62
     7
100
AcDbLine
 10
285.5459999999999
 20
34.424
 30
0.0
 11
285.396
 21
34.424
 31
0.0
  0
LINE
  5
3A
330
A5
100
AcDbEntity
  8
1
  6
CONTINUOUS
 62
     7
100
AcDbLine
 10
285.334
 20
34.443
 30
0.0
 11
285.2579999999999
 21
34.405
 31
0.0
  0
LINE
  5
3B
330
A5
100
AcDbEntity
  8
1
  6
CONTINUOUS
 62
     7
100
AcDbLine
 10
285.358
 20
34.405
 30
0.0
 11
285.434
 21
34.443
 31
0.0
  0
LINE
  5
3C
330
A5
100
AcDbEntity
  8
1
  6
CONTINUOUS
 62
     7
100
AcDbLine
 10
285.2959999999999
 20
34.605
 30
0.0
 11
285.2959999999999
 21
34.386
 31
0.0
  0
LINE
  5
3D
330
A5
100
AcDbEntity
  8
1
  6
CONTINUOUS
 62
     7
100
AcDbLine
 10
285.396
 20
34.605
 30
0.0
 11
285.396
 21
34.386
 31
0.0
  0
ARC
  5
3E
330
A5
100
AcDbEntity
  8
1
  6
CONTINUOUS
 62
     7
100
AcDbCircle
 10
285.5959999999999
 20
34.701333
 30
0.0
 40
0.208333
100
AcDbArc
 50
196.2602055555555
 51
343.7397972222222
  0
TEXT
  5
3F
330
A5
100
AcDbEntity
  8
1
  6
CONTINUOUS
 62
     7
100
AcDbText
 10
285.4739999999999
 20
34.282
 30
0.0
 40
0.075
  1
0.40
  7
ROMANC
100
AcDbText
  0
LINE
  5
40
330
A5
100
AcDbEntity
  8
1
  6
CONTINUOUS
 62
     7
100
AcDbLine
 10
285.2459999999999
 20
34.319
 30
0.0
 11
285.396
 21
34.319
 31
0.0
  0
LINE
  5
41
330
A5
100
AcDbEntity
  8
1
  6
CONTINUOUS
 62
     7
100
AcDbLine
 10
285.946
 20
34.319
 30
0.0
 11
285.7959999999999
 21
34.319
 31
0.0
  0
LINE
  5
42
330
A5
100
AcDbEntity
  8
1
  6
CONTINUOUS
 62
     7
100
AcDbLine
 10
285.434
 20
34.338
 30
0.0
 11
285.358
 21
34.3
 31
0.0
  0
LINE
  5
43
330
A5
100
AcDbEntity
  8
1
  6
CONTINUOUS
 62
     7
100
AcDbLine
 10
285.758
 20
34.3
 30
0.0
 11
285.834
 21
34.338
 31
0.0
  0
LINE
  5
44
330
A5
100
AcDbEntity
  8
1
  6
CONTINUOUS
 62
     7
100
AcDbLine
 10
285.396
 20
34.605
 30
0.0
 11
285.396
 21
34.281
 31
0.0
  0
LINE
  5
45
330
A5
100
AcDbEntity
  8
1
  6
CONTINUOUS
 62
     7
100
AcDbLine
 10
285.7959999999999
 20
34.605
 30
0.0
 11
285.7959999999999
 21
34.281
 31
0.0
  0
LINE
  5
46
330
A5
100
AcDbEntity
  8
1
  6
CONTINUOUS
 62
     7
100
AcDbLine
 10
285.7959999999999
 20
34.643
 30
0.0
 11
285.896
 21
34.643
 31
0.0
  0
LINE
  5
47
330
A5
100
AcDbEntity
  8
1
  6
CONTINUOUS
 62
     7
100
AcDbLine
 10
285.896
 20
34.643
 30
0.0
 11
286.0459999999999
 21
35.643
 31
0.0
  0
TEXT
  5
48
330
A5
100
AcDbEntity
  8
1
  6
CONTINUOUS
 62
     7
100
AcDbText
 10
285.9719999999999
 20
34.386
 30
0.0
 40
0.075
  1
0.10
  7
ROMANC
100
AcDbText
  0
LINE
  5
49
330
A5
100
AcDbEntity
  8
1
  6
CONTINUOUS
 62
     7
100
AcDbLine
 10
285.646
 20
34.424
 30
0.0
 11
285.7959999999999
 21
34.424
 31
0.0
  0
LINE
  5
4A
330
A5
100
AcDbEntity
  8
1
  6
CONTINUOUS
 62
     7
100
AcDbLine
 10
285.934
 20
34.424
 30
0.0
 11
285.896
 21
34.424
 31
0.0
  0
LINE
  5
4B
330
A5
100
AcDbEntity
  8
1
  6
CONTINUOUS
 62
     7
100
AcDbLine
 10
285.834
 20
34.443
 30
0.0
 11
285.758
 21
34.405
 31
0.0
  0
LINE
  5
4C
330
A5
100
AcDbEntity
  8
1
  6
CONTINUOUS
 62
     7
100
AcDbLine
 10
285.8579999999999
 20
34.405
 30
0.0
 11
285.934
 21
34.443
 31
0.0
  0
LINE
  5
4D
330
A5
100
AcDbEntity
  8
1
  6
CONTINUOUS
 62
     7
100
AcDbLine
 10
285.7959999999999
 20
34.605
 30
0.0
 11
285.7959999999999
 21
34.386
 31
0.0
  0
LINE
  5
4E
330
A5
100
AcDbEntity
  8
1
  6
CONTINUOUS
 62
     7
100
AcDbLine
 10
285.896
 20
34.605
 30
0.0
 11
285.896
 21
34.386
 31
0.0
  0
TEXT
  5
4F
330
A5
100
AcDbEntity
  8
1
  6
CONTINUOUS
 62
     7
100
AcDbText
 10
286.262
 20
34.087
 30
0.0
 40
0.075
  1
0.15
 50
90.0
  7
ROMANC
100
AcDbText
  0
LINE
  5
50
330
A5
100
AcDbEntity
  8
1
  6
CONTINUOUS
 62
     7
100
AcDbLine
 10
286.225
 20
34.42
 30
0.0
 11
286.225
 21
34.493
 31
0.0
  0
LINE
  5
51
330
A5
100
AcDbEntity
  8
1
  6
CONTINUOUS
 62
     7
100
AcDbLine
 10
286.225
 20
34.793
 30
0.0
 11
286.225
 21
34.643
 31
0.0
  0
LINE
  5
52
330
A5
100
AcDbEntity
  8
1
  6
CONTINUOUS
 62
     7
100
AcDbLine
 10
286.2059999999999
 20
34.53
 30
0.0
 11
286.244
 21
34.456
 31
0.0
  0
LINE
  5
53
330
A5
100
AcDbEntity
  8
1
  6
CONTINUOUS
 62
     7
100
AcDbLine
 10
286.244
 20
34.606
 30
0.0
 11
286.2059999999999
 21
34.67999999999999
 31
0.0
  0
LINE
  5
54
330
A5
100
AcDbEntity
  8
1
  6
CONTINUOUS
 62
     7
100
AcDbLine
 10
285.634
 20
34.493
 30
0.0
 11
286.263
 21
34.493
 31
0.0
  0
LINE
  5
55
330
A5
100
AcDbEntity
  8
1
  6
CONTINUOUS
 62
     7
100
AcDbLine
 10
285.934
 20
34.643
 30
0.0
 11
286.263
 21
34.643
 31
0.0
  0
TEXT
  5
56
330
A5
100
AcDbEntity
  8
1
  6
CONTINUOUS
 62
     7
100
AcDbText
 10
286.184
 20
35.033
 30
0.0
 40
0.075
  1
1.00
 50
90.0
  7
ROMANC
100
AcDbText
  0
LINE
  5
57
330
A5
100
AcDbEntity
  8
1
  6
CONTINUOUS
 62
     7
100
AcDbLine
 10
286.146
 20
34.99499999999999
 30
0.0
 11
286.146
 21
34.643
 31
0.0
  0
LINE
  5
58
330
A5
100
AcDbEntity
  8
1
  6
CONTINUOUS
 62
     7
100
AcDbLine
 10
286.146
 20
35.28999999999999
 30
0.0
 11
286.146
 21
35.643
 31
0.0
  0
LINE
  5
59
330
A5
100
AcDbEntity
  8
1
  6
CONTINUOUS
 62
     7
100
AcDbLine
 10
286.165
 20
34.606
 30
0.0
 11
286.127
 21
34.67999999999999
 31
0.0
  0
LINE
  5
5A
330
A5
100
AcDbEntity
  8
1
  6
CONTINUOUS
 62
     7
100
AcDbLine
 10
286.127
 20
35.68
 30
0.0
 11
286.165
 21
35.606
 31
0.0
  0
LINE
  5
5B
330
A5
100
AcDbEntity
  8
1
  6
CONTINUOUS
 62
     7
100
AcDbLine
 10
285.934
 20
34.643
 30
0.0
 11
286.184
 21
34.643
 31
0.0
  0
LINE
  5
5C
330
A5
100
AcDbEntity
  8
1
  6
CONTINUOUS
 62
     7
100
AcDbLine
 10
286.0839999999999
 20
35.643
 30
0.0
 11
286.184
 21
35.643
 31
0.0
  0
TEXT
  5
5D
330
A5
100
AcDbEntity
  8
1
  6
CONTINUOUS
 62
     7
100
AcDbText
 10
286.184
 20
35.746
 30
0.0
 40
0.075
  1
0.45
 50
90.0
  7
ROMANC
100
AcDbText
  0
LINE
  5
5E
330
A5
100
AcDbEntity
  8
1
  6
CONTINUOUS
 62
     7
100
AcDbLine
 10
286.146
 20
35.493
 30
0.0
 11
286.146
 21
35.643
 31
0.0
  0
LINE
  5
5F
330
A5
100
AcDbEntity
  8
1
  6
CONTINUOUS
 62
     7
100
AcDbLine
 10
286.146
 20
36.243
 30
0.0
 11
286.146
 21
36.093
 31
0.0
  0
LINE
  5
60
330
A5
100
AcDbEntity
  8
1
  6
CONTINUOUS
 62
     7
100
AcDbLine
 10
286.127
 20
35.68
 30
0.0
 11
286.165
 21
35.606
 31
0.0
  0
LINE
  5
61
330
A5
100
AcDbEntity
  8
1
  6
CONTINUOUS
 62
     7
100
AcDbLine
 10
286.165
 20
36.05599999999999
 30
0.0
 11
286.127
 21
36.13
 31
0.0
  0
LINE
  5
62
330
A5
100
AcDbEntity
  8
1
  6
CONTINUOUS
 62
     7
100
AcDbLine
 10
285.634
 20
36.093
 30
0.0
 11
286.184
 21
36.093
 31
0.0
  0
TEXT
  5
63
330
A5
100
AcDbEntity
  8
1
  6
CONTINUOUS
 62
     7
100
AcDbText
 10
286.356
 20
35.18299999999999
 30
0.0
 40
0.075
  1
1.60
 50
90.0
  7
ROMANC
100
AcDbText
  0
LINE
  5
64
330
A5
100
AcDbEntity
  8
1
  6
CONTINUOUS
 62
     7
100
AcDbLine
 10
286.319
 20
35.145
 30
0.0
 11
286.319
 21
34.493
 31
0.0
  0
LINE
  5
65
330
A5
100
AcDbEntity
  8
1
  6
CONTINUOUS
 62
     7
100
AcDbLine
 10
286.319
 20
35.44
 30
0.0
 11
286.319
 21
36.093
 31
0.0
  0
LINE
  5
66
330
A5
100
AcDbEntity
  8
1
  6
CONTINUOUS
 62
     7
100
AcDbLine
 10
286.338
 20
34.456
 30
0.0
 11
286.2999999999999
 21
34.53
 31
0.0
  0
LINE
  5
67
330
A5
100
AcDbEntity
  8
1
  6
CONTINUOUS
 62
     7
100
AcDbLine
 10
286.2999999999999
 20
36.13
 30
0.0
 11
286.338
 21
36.05599999999999
 31
0.0
  0
LINE
  5
68
330
A5
100
AcDbEntity
  8
1
  6
CONTINUOUS
 62
     7
100
AcDbLine
 10
285.634
 20
34.493
 30
0.0
 11
286.357
 21
34.493
 31
0.0
  0
LINE
  5
69
330
A5
100
AcDbEntity
  8
1
  6
CONTINUOUS
 62
     7
100
AcDbLine
 10
285.634
 20
36.093
 30
0.0
 11
286.357
 21
36.093
 31
0.0
  0
ARC
  5
6A
330
A5
100
AcDbEntity
  8
1
  6
CONTINUOUS
 62
     7
100
AcDbCircle
 10
285.5959999999999
 20
35.643
 30
0.0
 40
0.45
100
AcDbArc
 50
0.0
 51
180.0
  0
TEXT
  5
6B
330
A5
100
AcDbEntity
  8
1
  6
CONTINUOUS
 62
     7
100
AcDbText
 10
285.477
 20
36.198
 30
0.0
 40
0.075
  1
0.90
  7
ROMANC
100
AcDbText
  0
LINE
  5
6C
330
A5
100
AcDbEntity
  8
1
  6
CONTINUOUS
 62
     7
100
AcDbLine
 10
285.439
 20
36.23499999999999
 30
0.0
 11
285.146
 21
36.23499999999999
 31
0.0
  0
LINE
  5
6D
330
A5
100
AcDbEntity
  8
1
  6
CONTINUOUS
 62
     7
100
AcDbLine
 10
285.751
 20
36.23499999999999
 30
0.0
 11
286.0459999999999
 21
36.23499999999999
 31
0.0
  0
LINE
  5
6E
330
A5
100
AcDbEntity
  8
1
  6
CONTINUOUS
 62
     7
100
AcDbLine
 10
285.1079999999999
 20
36.216
 30
0.0
 11
285.184
 21
36.25399999999999
 31
0.0
  0
LINE
  5
6F
330
A5
100
AcDbEntity
  8
1
  6
CONTINUOUS
 62
     7
100
AcDbLine
 10
286.0839999999999
 20
36.25399999999999
 30
0.0
 11
286.0079999999999
 21
36.216
 31
0.0
  0
LINE
  5
70
330
A5
100
AcDbEntity
  8
1
  6
CONTINUOUS
 62
     7
100
AcDbLine
 10
285.146
 20
35.68099999999999
 30
0.0
 11
285.146
 21
36.273
 31
0.0
  0
LINE
  5
71
330
A5
100
AcDbEntity
  8
1
  6
CONTINUOUS
 62
     7
100
AcDbLine
 10
286.0459999999999
 20
35.68099999999999
 30
0.0
 11
286.0459999999999
 21
36.273
 31
0.0
  0
TEXT
  5
72
330
A5
100
AcDbEntity
  8
1
  6
CONTINUOUS
 62
     7
100
AcDbText
 10
285.477
 20
34.13199999999999
 30
0.0
 40
0.075
  1
0.60
  7
ROMANC
100
AcDbText
  0
LINE
  5
73
330
A5
100
AcDbEntity
  8
1
  6
CONTINUOUS
 62
     7
100
AcDbLine
 10
285.146
 20
34.17
 30
0.0
 11
285.2959999999999
 21
34.17
 31
0.0
  0
LINE
  5
74
330
A5
100
AcDbEntity
  8
1
  6
CONTINUOUS
 62
     7
100
AcDbLine
 10
286.0459999999999
 20
34.17
 30
0.0
 11
285.896
 21
34.17
 31
0.0
  0
LINE
  5
75
330
A5
100
AcDbEntity
  8
1
  6
CONTINUOUS
 62
     7
100
AcDbLine
 10
285.334
 20
34.189
 30
0.0
 11
285.2579999999999
 21
34.151
 31
0.0
  0
LINE
  5
76
330
A5
100
AcDbEntity
  8
1
  6
CONTINUOUS
 62
     7
100
AcDbLine
 10
285.8579999999999
 20
34.151
 30
0.0
 11
285.934
 21
34.189
 31
0.0
  0
LINE
  5
77
330
A5
100
AcDbEntity
  8
1
  6
CONTINUOUS
 62
     7
100
AcDbLine
 10
285.2959999999999
 20
34.605
 30
0.0
 11
285.2959999999999
 21
34.13199999999999
 31
0.0
  0
LINE
  5
78
330
A5
100
AcDbEntity
  8
1
  6
CONTINUOUS
 62
     7
100
AcDbLine
 10
285.896
 20
34.605
 30
0.0
 11
285.896
 21
34.13199999999999
 31
0.0
  0
ARC
  5
79
330
A5
100
AcDbEntity
  8
1
  6
CONTINUOUS
 62
     7
100
AcDbCircle
 10
285.5959999999999
 20
35.643
 30
0.0
 40
0.4600000000000001
100
AcDbArc
 50
0.5638500000000001
 51
180.2528361111111
  0
ARC
  5
7A
330
A5
100
AcDbEntity
  8
1
  6
CONTINUOUS
 62
     7
100
AcDbCircle
 10
285.5959999999999
 20
35.643
 30
0.0
 40
0.4700000000000001
100
AcDbArc
 50
0.4336916666666668
 51
180.3738277777777
  0
LINE
  5
7B
330
A5
100
AcDbEntity
  8
1
  6
CONTINUOUS
 62
     7
100
AcDbLine
 10
285.136
 20
35.64099999999999
 30
0.0
 11
285.2869999999999
 21
34.633
 31
0.0
  0
LINE
  5
7C
330
A5
100
AcDbEntity
  8
1
  6
CONTINUOUS
 62
     7
100
AcDbLine
 10
285.126
 20
35.64
 30
0.0
 11
285.279
 21
34.62299999999999
 31
0.0
  0
LINE
  5
7D
330
A5
100
AcDbEntity
  8
1
  6
CONTINUOUS
 62
     7
100
AcDbLine
 10
285.2869999999999
 20
34.633
 30
0.0
 11
285.389
 21
34.633
 31
0.0
  0
LINE
  5
7E
330
A5
100
AcDbEntity
  8
1
  6
CONTINUOUS
 62
     7
100
AcDbLine
 10
285.279
 20
34.62299999999999
 30
0.0
 11
285.382
 21
34.62299999999999
 31
0.0
  0
ARC
  5
7F
330
A5
100
AcDbEntity
  8
1
  6
CONTINUOUS
 62
     7
100
AcDbCircle
 10
285.5959999999999
 20
34.701333
 30
0.0
 40
0.218333
100
AcDbArc
 50
198.2387361111111
 51
341.7612638888889
  0
ARC
  5
80
330
A5
100
AcDbEntity
  8
1
  6
CONTINUOUS
 62
     7
100
AcDbCircle
 10
285.5959999999999
 20
34.701333
 30
0.0
 40
0.228333
100
AcDbArc
 50
200.0637638888889
 51
339.9362361111111
  0
LINE
  5
81
330
A5
100
AcDbEntity
  8
1
  6
CONTINUOUS
 62
     7
100
AcDbLine
 10
285.8029999999999
 20
34.633
 30
0.0
 11
285.9039999999999
 21
34.633
 31
0.0
  0
LINE
  5
82
330
A5
100
AcDbEntity
  8
1
  6
CONTINUOUS
 62
     7
100
AcDbLine
 10
285.8099999999999
 20
34.62299999999999
 30
0.0
 11
285.9119999999999
 21
34.62299999999999
 31
0.0
  0
LINE
  5
83
330
A5
100
AcDbEntity
  8
1
  6
CONTINUOUS
 62
     7
100
AcDbLine
 10
285.9039999999999
 20
34.633
 30
0.0
 11
286.0559999999999
 21
35.648
 31
0.0
  0
LINE
  5
84
330
A5
100
AcDbEntity
  8
1
  6
CONTINUOUS
 62
     7
100
AcDbLine
 10
285.9119999999999
 20
34.62299999999999
 30
0.0
 11
286.066
 21
35.647
 31
0.0
  0
ENDSEC
  0
SECTION
  2
OBJECTS
  0
DICTIONARY
  5
93
330
0
100
AcDbDictionary
  3
ACAD_GROUP
350
94
  3
ACAD_PLOTSTYLENAME
350
95
  3
ACAD_MLINESTYLE
350
9D
  3
ACAD_PLOTSETTINGS
350
9F
  3
ACAD_LAYOUT
350
A0
  3
ACDBHEADERROUNDTRIPXREC
350
BD
  0
DICTIONARY
  5
E0
330
A5
100
AcDbDictionary
280
     1
  3
ACAD_LAYOUTSELFREF
360
E1
  0
DICTIONARY
  5
DE
330
A1
100
AcDbDictionary
280
     1
  3
ACAD_LAYOUTSELFREF
360
DF
  0
DICTIONARY
  5
94
102
{ACAD_REACTORS
330
93
102
}
330
93
100
AcDbDictionary
  0
ACDBDICTIONARYWDFLT
  5
95
102
{ACAD_REACTORS
330
93
102
}
330
93
100
AcDbDictionary
281
     1
  3
Normal
350
96
100
AcDbDictionaryWithDefault
340
96
  0
DICTIONARY
  5
9D
102
{ACAD_REACTORS
330
93
102
}
330
93
100
AcDbDictionary
  3
STANDARD
350
9E
  0
DICTIONARY
  5
9F
102
{ACAD_REACTORS
330
93
102
}
330
93
100
AcDbDictionary
  0
DICTIONARY
  5
A0
102
{ACAD_REACTORS
330
93
102
}
330
93
100
AcDbDictionary
  0
DICTIONARY
  5
BD
102
{ACAD_REACTORS
330
93
102
}
330
93
100
AcDbDictionary
  3
TSTACKALIGN
350
BE
  3
TSTACKSIZE
350
BF
  3
HYPERLINKBASE
350
C0
  3
STYLESHEET
350
C1
  3
LAYOUTDICT
350
C2
  3
PLOTSETDICT
350
C3
  3
PLOTSTYLNAMDICT
350
C4
  3
LWETCUNION
350
C5
  3
INSUNITS
350
C6
  3
CEPSNTYPE
350
C7
  3
FINGERPRINTGUID
350
C8
  3
VERSIONGUID
350
C9
  3
PSVPSCALE
350
CA
  3
DIMSTYLEDATA
350
CB
  3
PUCSORTHOREF
350
CC
  3
PUCSORTHOVIEW
350
CD
  3
PUCSBASE
350
CE
  3
PUCSORGTOP
350
CF
  3
PUCSORGBOTTOM
350
D0
  3
PUCSORGLEFT
350
D1
  3
PUCSORGRIGHT
350
D2
  3
PUCSORGFRONT
350
D3
  3
PUCSORGBACK
350
D4
  3
UCSORTHOREF
350
D5
  3
UCSORTHOVIEW
350
D6
  3
UCSBASE
350
D7
  3
UCSORGTOP
350
D8
  3
UCSORGBOTTOM
350
D9
  3
UCSORGLEFT
350
DA
  3
UCSORGRIGHT
350
DB
  3
UCSORGFRONT
350
DC
  3
UCSORGBACK
350
DD
  0
XRECORD
  5
E1
102
{ACAD_REACTORS
330
E0
102
}
330
E0
100
AcDbXrecord
340
A5
  0
XRECORD
  5
DF
102
{ACAD_REACTORS
330
DE
102
}
330
DE
100
AcDbXrecord
340
A1
  0
ACDBPLACEHOLDER
  5
96
102
{ACAD_REACTORS
330
95
102
}
330
95
100
AcDbPlaceHolder
280
     0
  0
MLINESTYLE
  5
9E
102
{ACAD_REACTORS
330
9D
102
}
330
9D
100
AcDbMlineStyle
  2
STANDARD
 70
     0
  3

 62
   256
 51
90.0
 52
90.0
 71
     2
 49
0.5
 62
   256
  6
BYLAYER
 49
-0.5
 62
   256
  6
BYLAYER
  0
XRECORD
  5
BE
102
{ACAD_REACTORS
330
BD
102
}
330
BD
100
AcDbXrecord
 90
        1
  0
XRECORD
  5
BF
102
{ACAD_REACTORS
330
BD
102
}
330
BD
100
AcDbXrecord
 90
       70
  0
XRECORD
  5
C0
102
{ACAD_REACTORS
330
BD
102
}
330
BD
100
AcDbXrecord
  1

  0
XRECORD
  5
C1
102
{ACAD_REACTORS
330
BD
102
}
330
BD
100
AcDbXrecord
  1

  0
XRECORD
  5
C2
102
{ACAD_REACTORS
330
BD
102
}
330
BD
100
AcDbXrecord
340
A0
  0
XRECORD
  5
C3
102
{ACAD_REACTORS
330
BD
102
}
330
BD
100
AcDbXrecord
340
9F
  0
XRECORD
  5
C4
102
{ACAD_REACTORS
330
BD
102
}
330
BD
100
AcDbXrecord
340
95
  0
XRECORD
  5
C5
102
{ACAD_REACTORS
330
BD
102
}
330
BD
100
AcDbXrecord
 90
    14877
  0
XRECORD
  5
C6
102
{ACAD_REACTORS
330
BD
102
}
330
BD
100
AcDbXrecord
 90
        0
  0
XRECORD
  5
C7
102
{ACAD_REACTORS
330
BD
102
}
330
BD
100
AcDbXrecord
 90
        0
  0
XRECORD
  5
C8
102
{ACAD_REACTORS
330
BD
102
}
330
BD
100
AcDbXrecord
  1
{7BD22B36-DFA2-4882-9CD2-31BFF2028DB3}
  0
XRECORD
  5
C9
102
{ACAD_REACTORS
330
BD
102
}
330
BD
100
AcDbXrecord
  1
{15967774-B638-4004-B4E2-190DD73365DE}
  0
XRECORD
  5
CA
102
{ACAD_REACTORS
330
BD
102
}
330
BD
100
AcDbXrecord
 40
0.0
  0
XRECORD
  5
CB
102
{ACAD_REACTORS
330
BD
102
}
330
BD
100
AcDbXrecord
1000
DSTYLE
1002
{
1070
   279
 70
     2
1002
}
  0
XRECORD
  5
CC
102
{ACAD_REACTORS
330
BD
102
}
330
BD
100
AcDbXrecord
340
0
  0
XRECORD
  5
CD
102
{ACAD_REACTORS
330
BD
102
}
330
BD
100
AcDbXrecord
 70
     0
  0
XRECORD
  5
CE
102
{ACAD_REACTORS
330
BD
102
}
330
BD
100
AcDbXrecord
340
0
  0
XRECORD
  5
CF
102
{ACAD_REACTORS
330
BD
102
}
330
BD
100
AcDbXrecord
 10
0.0
 20
0.0
 30
0.0
  0
XRECORD
  5
D0
102
{ACAD_REACTORS
330
BD
102
}
330
BD
100
AcDbXrecord
 10
0.0
 20
0.0
 30
0.0
  0
XRECORD
  5
D1
102
{ACAD_REACTORS
330
BD
102
}
330
BD
100
AcDbXrecord
 10
0.0
 20
0.0
 30
0.0
  0
XRECORD
  5
D2
102
{ACAD_REACTORS
330
BD
102
}
330
BD
100
AcDbXrecord
 10
0.0
 20
0.0
 30
0.0
  0
XRECORD
  5
D3
102
{ACAD_REACTORS
330
BD
102
}
330
BD
100
AcDbXrecord
 10
0.0
 20
0.0
 30
0.0
  0
XRECORD
  5
D4
102
{ACAD_REACTORS
330
BD
102
}
330
BD
100
AcDbXrecord
 10
0.0
 20
0.0
 30
0.0
  0
XRECORD
  5
D5
102
{ACAD_REACTORS
330
BD
102
}
330
BD
100
AcDbXrecord
340
0
  0
XRECORD
  5
D6
102
{ACAD_REACTORS
330
BD
102
}
330
BD
100
AcDbXrecord
 70
     0
  0
XRECORD
  5
D7
102
{ACAD_REACTORS
330
BD
102
}
330
BD
100
AcDbXrecord
340
0
  0
XRECORD
  5
D8
102
{ACAD_REACTORS
330
BD
102
}
330
BD
100
AcDbXrecord
 10
0.0
 20
0.0
 30
0.0
  0
XRECORD
  5
D9
102
{ACAD_REACTORS
330
BD
102
}
330
BD
100
AcDbXrecord
 10
0.0
 20
0.0
 30
0.0
  0
XRECORD
  5
DA
102
{ACAD_REACTORS
330
BD
102
}
330
BD
100
AcDbXrecord
 10
0.0
 20
0.0
 30
0.0
  0
XRECORD
  5
DB
102
{ACAD_REACTORS
330
BD
102
}
330
BD
100
AcDbXrecord
 10
0.0
 20
0.0
 30
0.0
  0
XRECORD
  5
DC
102
{ACAD_REACTORS
330
BD
102
}
330
BD
100
AcDbXrecord
 10
0.0
 20
0.0
 30
0.0
  0
XRECORD
  5
DD
102
{ACAD_REACTORS
330
BD
102
}
330
BD
100
AcDbXrecord
 10
0.0
 20
0.0
 30
0.0
  0
ENDSEC
  0
EOF
