  0
SECTION
  2
HEADER
  9
$ACADVER
  1
AC1009
  9
$INSBASE
 10
0.0
 20
0.0
 30
0.0
  9
$EXTMIN
 10
281.396
 20
29.897
 30
0.0
  9
$EXTMAX
 10
291.896
 20
44.747
 30
0.0
  9
$LIMMIN
 10
280.396
 20
28.897
  9
$LIMMAX
 10
292.896
 20
43.747
  9
$ORTHOMODE
 70
     0
  9
$REGENMODE
 70
     1
  9
$FILLMODE
 70
     1
  9
$QTEXTMODE
 70
     0
  9
$MIRRTEXT
 70
     1
  9
$DRAGMODE
 70
     2
  9
$LTSCALE
 40
1.0
  9
$OSMODE
 70
     0
  9
$ATTMODE
 70
     1
  9
$TEXTSIZE
 40
0.075
  9
$TRACEWID
 40
0.05
  9
$TEXTSTYLE
  7
ROMANC
  9
$CLAYER
  8
0
  9
$CELTYPE
  6
BYLAYER
  9
$CECOLOR
 62
   256
  9
$DIMSCALE
 40
1.0
  9
$DIMASZ
 40
0.0
  9
$DIMEXO
 40
0.0625
  9
$DIMDLI
 40
0.38
  9
$DIMRND
 40
0.0
  9
$DIMDLE
 40
0.0
  9
$DIMEXE
 40
0.03
  9
$DIMTP
 40
0.0
  9
$DIMTM
 40
0.0
  9
$DIMTXT
 40
0.075
  9
$DIMCEN
 40
0.09
  9
$DIMTSZ
 40
0.03
  9
$DIMTOL
 70
     0
  9
$DIMLIM
 70
     0
  9
$DIMTIH
 70
     1
  9
$DIMTOH
 70
     1
  9
$DIMSE1
 70
     0
  9
$DIMSE2
 70
     0
  9
$DIMTAD
 70
     0
  9
$DIMZIN
 70
     0
  9
$DIMBLK
  1

  9
$DIMASO
 70
     1
  9
$DIMSHO
 70
     1
  9
$DIMPOST
  1

  9
$DIMAPOST
  1

  9
$DIMALT
 70
     0
  9
$DIMALTD
 70
     2
  9
$DIMALTF
 40
25.4
  9
$DIMLFAC
 40
1.0
  9
$DIMTOFL
 70
     0
  9
$DIMTVP
 40
0.0
  9
$DIMTIX
 70
     0
  9
$DIMSOXD
 70
     0
  9
$DIMSAH
 70
     0
  9
$DIMBLK1
  1

  9
$DIMBLK2
  1

  9
$DIMSTYLE
  2
*UNNAMED
  9
$DIMCLRD
 70
     0
  9
$DIMCLRE
 70
     0
  9
$DIMCLRT
 70
     0
  9
$DIMTFAC
 40
2.4
  9
$DIMGAP
 40
0.09
  9
$LUNITS
 70
     2
  9
$LUPREC
 70
     4
  9
$SKETCHINC
 40
0.1
  9
$FILLETRAD
 40
0.0
  9
$AUNITS
 70
     0
  9
$AUPREC
 70
     0
  9
$MENU
  1
acad
  9
$ELEVATION
 40
0.0
  9
$PELEVATION
 40
0.0
  9
$THICKNESS
 40
0.0
  9
$LIMCHECK
 70
     0
  9
$BLIPMODE
 70
     1
  9
$CHAMFERA
 40
0.0
  9
$CHAMFERB
 40
0.0
  9
$SKPOLY
 70
     0
  9
$TDCREATE
 40
2448315.373408102
  9
$TDUPDATE
 40
2448315.373408102
  9
$TDINDWG
 40
0.0000000000
  9
$TDUSRTIMER
 40
0.0000000000
  9
$USRTIMER
 70
     1
  9
$ANGBASE
 50
0.0
  9
$ANGDIR
 70
     0
  9
$PDMODE
 70
     0
  9
$PDSIZE
 40
0.0
  9
$PLINEWID
 40
0.0
  9
$COORDS
 70
     0
  9
$SPLFRAME
 70
     0
  9
$SPLINETYPE
 70
     6
  9
$SPLINESEGS
 70
     8
  9
$ATTDIA
 70
     0
  9
$ATTREQ
 70
     1
  9
$HANDLING
 70
     0
  9
$HANDSEED
  5
0
  9
$SURFTAB1
 70
     6
  9
$SURFTAB2
 70
     6
  9
$SURFTYPE
 70
     6
  9
$SURFU
 70
     6
  9
$SURFV
 70
     6
  9
$UCSNAME
  2

  9
$UCSORG
 10
0.0
 20
0.0
 30
0.0
  9
$UCSXDIR
 10
1.0
 20
0.0
 30
0.0
  9
$UCSYDIR
 10
0.0
 20
1.0
 30
0.0
  9
$PUCSNAME
  2

  9
$PUCSORG
 10
0.0
 20
0.0
 30
0.0
  9
$PUCSXDIR
 10
1.0
 20
0.0
 30
0.0
  9
$PUCSYDIR
 10
0.0
 20
1.0
 30
0.0
  9
$USERI1
 70
     0
  9
$USERI2
 70
     0
  9
$USERI3
 70
     0
  9
$USERI4
 70
     0
  9
$USERI5
 70
     0
  9
$USERR1
 40
0.0
  9
$USERR2
 40
0.0
  9
$USERR3
 40
0.0
  9
$USERR4
 40
0.0
  9
$USERR5
 40
0.0
  9
$WORLDVIEW
 70
     1
  9
$SHADEDGE
 70
     3
  9
$SHADEDIF
 70
    70
  9
$TILEMODE
 70
     1
  9
$MAXACTVP
 70
    16
  9
$PINSBASE
 10
0.0
 20
0.0
 30
0.0
  9
$PLIMCHECK
 70
     0
  9
$PEXTMIN
 10
1.000000E+20
 20
1.000000E+20
 30
1.000000E+20
  9
$PEXTMAX
 10
-1.000000E+20
 20
-1.000000E+20
 30
-1.000000E+20
  9
$PLIMMIN
 10
0.0
 20
0.0
  9
$PLIMMAX
 10
12.0
 20
9.0
  9
$UNITMODE
 70
     0
  9
$VISRETAIN
 70
     0
  9
$PLINEGEN
 70
     0
  9
$PSLTSCALE
 70
     0
  9
$TREEDEPTH
 70
  3020
  9
$DWGCODEPAGE
  3
iso8859-1
  0
ENDSEC
  0
SECTION
  2
TABLES
  0
TABLE
  2
VPORT
 70
     2
  0
VPORT
  2
*ACTIVE
 70
     0
 10
0.0
 20
0.0
 11
1.0
 21
1.0
 12
293.35785
 22
37.322
 13
0.0
 23
0.0
 14
1.0
 24
1.0
 15
10.0
 25
10.0
 16
0.0
 26
0.0
 36
1.0
 17
0.0
 27
0.0
 37
0.0
 40
14.85
 41
1.611024
 42
50.0
 43
0.0
 44
0.0
 50
0.0
 51
0.0
 71
     0
 72
   100
 73
     1
 74
     0
 75
     0
 76
     0
 77
     0
 78
     0
  0
ENDTAB
  0
TABLE
  2
LTYPE
 70
     1
  0
LTYPE
  2
CONTINUOUS
 70
    64
  3
Solid line
 72
    65
 73
     0
 40
0.0
  0
ENDTAB
  0
TABLE
  2
LAYER
 70
     8
  0
LAYER
  2
0
 70
    64
 62
     7
  6
CONTINUOUS
  0
LAYER
  2
1
 70
    64
 62
     7
  6
CONTINUOUS
  0
LAYER
  2
7
 70
    64
 62
     7
  6
CONTINUOUS
  0
LAYER
  2
8
 70
    64
 62
     7
  6
CONTINUOUS
  0
LAYER
  2
9
 70
    64
 62
     7
  6
CONTINUOUS
  0
LAYER
  2
22
 70
    64
 62
     7
  6
CONTINUOUS
  0
LAYER
  2
25
 70
    64
 62
     7
  6
CONTINUOUS
  0
LAYER
  2
DEFPOINTS
 70
    64
 62
     7
  6
CONTINUOUS
  0
ENDTAB
  0
TABLE
  2
STYLE
 70
     2
  0
STYLE
  2
STANDARD
 70
     0
 40
0.0
 41
1.0
 50
0.0
 71
     0
 42
3.5
  3
txt
  4

  0
STYLE
  2
ROMANC
 70
    64
 40
0.0
 41
1.0
 50
0.0
 71
     0
 42
0.075
  3
romanc
  4

  0
ENDTAB
  0
TABLE
  2
VIEW
 70
     0
  0
ENDTAB
  0
TABLE
  2
UCS
 70
     0
  0
ENDTAB
  0
TABLE
  2
APPID
 70
     1
  0
APPID
  2
ACAD
 70
    64
  0
ENDTAB
  0
TABLE
  2
DIMSTYLE
 70
     0
  0
ENDTAB
  0
ENDSEC
  0
SECTION
  2
BLOCKS
  0
BLOCK
  8
0
  2
*D0
 70
    65
 10
0.0
 20
0.0
 30
0.0
  3
*D
  0
LINE
  8
0
  6
BYBLOCK
 62
     0
 10
285.33
 20
35.2335
 30
0.0
 11
285.33
 21
36.173062
 31
0.0
  0
LINE
  8
0
  6
BYBLOCK
 62
     0
 10
286.37
 20
35.2335
 30
0.0
 11
286.37
 21
36.173062
 31
0.0
  0
LINE
  8
0
  6
BYBLOCK
 62
     0
 10
285.33
 20
36.143062
 30
0.0
 11
285.6725
 21
36.143062
 31
0.0
  0
LINE
  8
0
  6
BYBLOCK
 62
     0
 10
286.37
 20
36.143062
 30
0.0
 11
286.0275
 21
36.143062
 31
0.0
  0
LINE
  8
0
  6
BYBLOCK
 62
     0
 10
285.3
 20
36.113062
 30
0.0
 11
285.36
 21
36.173062
 31
0.0
  0
LINE
  8
0
  6
BYBLOCK
 62
     0
 10
286.34
 20
36.113062
 30
0.0
 11
286.4
 21
36.173062
 31
0.0
  0
TEXT
  8
0
  6
BYBLOCK
 62
     0
 10
285.7625
 20
36.105562
 30
0.0
 40
0.075
  1
1.00
 72
     1
 11
285.85
 21
36.143062
 31
0.0
 73
     2
  0
POINT
  8
DEFPOINTS
  6
BYBLOCK
 62
     0
 10
285.33
 20
35.171
 30
0.0
  0
POINT
  8
DEFPOINTS
  6
BYBLOCK
 62
     0
 10
286.37
 20
35.171
 30
0.0
  0
POINT
  8
DEFPOINTS
  6
BYBLOCK
 62
     0
 10
286.37
 20
36.143062
 30
0.0
  0
ENDBLK
  8
0
  0
ENDSEC
  0
SECTION
  2
ENTITIES
  0
TEXT
  8
0
  6
CONTINUOUS
 10
286.909
 20
41.324
 30
0.0
 40
0.1
  1
2
  7
ROMANC
  0
TEXT
  8
0
  6
CONTINUOUS
 10
283.926
 20
41.768
 30
0.0
 40
0.3
  1
ESCALA  1:50
  7
ROMANC
  0
POLYLINE
  8
0
  6
CONTINUOUS
 66
     1
 10
0.0
 20
0.0
 30
0.0
 70
     1
  0
VERTEX
  8
0
  6
CONTINUOUS
 10
281.396
 20
44.747
 30
0.0
  0
VERTEX
  8
0
  6
CONTINUOUS
 10
291.896
 20
44.747
 30
0.0
  0
VERTEX
  8
0
  6
CONTINUOUS
 10
291.896
 20
29.897
 30
0.0
  0
VERTEX
  8
0
  6
CONTINUOUS
 10
281.396
 20
29.897
 30
0.0
  0
SEQEND
  8
0
  0
TEXT
  8
0
  6
CONTINUOUS
 10
283.926
 20
42.381
 30
0.0
 40
0.3
  1
TIPUS   T109A
  7
ROMANC
  0
ARC
  8
1
  6
CONTINUOUS
 10
285.85
 20
35.171
 30
0.0
 40
0.5
 50
0.0
 51
180.0
  0
LINE
  8
1
  6
CONTINUOUS
 10
285.35
 20
34.521
 30
0.0
 11
285.35
 21
35.171
 31
0.0
  0
TEXT
  8
0
  6
CONTINUOUS
 10
283.922
 20
40.529
 30
0.0
 40
0.3
  1
P = 40 dm
  7
ROMANC
  0
TEXT
  8
0
  6
CONTINUOUS
 10
283.945
 20
41.099
 30
0.0
 40
0.3
  1
S = 109 dm
  7
ROMANC
  0
LINE
  8
1
  6
CONTINUOUS
 10
285.6
 20
34.521
 30
0.0
 11
285.35
 21
34.521
 31
0.0
  0
ARC
  8
1
  6
CONTINUOUS
 10
285.85
 20
34.654333
 30
0.0
 40
0.283333
 50
208.072486
 51
331.927511
  0
LINE
  8
1
  6
CONTINUOUS
 10
286.35
 20
34.521
 30
0.0
 11
286.1
 21
34.521
 31
0.0
  0
TEXT
  8
1
  6
CONTINUOUS
 10
286.51
 20
34.68
 30
0.0
 40
0.075
  1
0.15
 50
90.0
  7
ROMANC
  0
LINE
  8
1
  6
CONTINUOUS
 10
286.473
 20
34.221
 30
0.0
 11
286.473
 21
34.371
 31
0.0
  0
LINE
  8
1
  6
CONTINUOUS
 10
286.473
 20
34.642
 30
0.0
 11
286.473
 21
34.521
 31
0.0
  0
LINE
  8
1
  6
CONTINUOUS
 10
286.454
 20
34.408
 30
0.0
 11
286.492
 21
34.334
 31
0.0
  0
LINE
  8
1
  6
CONTINUOUS
 10
286.492
 20
34.484
 30
0.0
 11
286.454
 21
34.558
 31
0.0
  0
LINE
  8
1
  6
CONTINUOUS
 10
285.888
 20
34.371
 30
0.0
 11
286.511
 21
34.371
 31
0.0
  0
LINE
  8
1
  6
CONTINUOUS
 10
286.388
 20
34.521
 30
0.0
 11
286.511
 21
34.521
 31
0.0
  0
LINE
  8
1
  6
CONTINUOUS
 10
286.35
 20
35.171
 30
0.0
 11
286.35
 21
34.521
 31
0.0
  0
TEXT
  8
1
  6
CONTINUOUS
 10
286.678
 20
34.727
 30
0.0
 40
0.075
  1
0.65
 50
90.0
  7
ROMANC
  0
LINE
  8
1
  6
CONTINUOUS
 10
286.641
 20
34.689
 30
0.0
 11
286.641
 21
34.521
 31
0.0
  0
LINE
  8
1
  6
CONTINUOUS
 10
286.641
 20
35.001
 30
0.0
 11
286.641
 21
35.171
 31
0.0
  0
LINE
  8
1
  6
CONTINUOUS
 10
286.66
 20
34.484
 30
0.0
 11
286.622
 21
34.558
 31
0.0
  0
LINE
  8
1
  6
CONTINUOUS
 10
286.622
 20
35.208
 30
0.0
 11
286.66
 21
35.134
 31
0.0
  0
LINE
  8
1
  6
CONTINUOUS
 10
286.388
 20
34.521
 30
0.0
 11
286.679
 21
34.521
 31
0.0
  0
LINE
  8
1
  6
CONTINUOUS
 10
286.388
 20
35.171
 30
0.0
 11
286.679
 21
35.171
 31
0.0
  0
TEXT
  8
1
  6
CONTINUOUS
 10
286.678
 20
35.302
 30
0.0
 40
0.075
  1
0.50
 50
90.0
  7
ROMANC
  0
LINE
  8
1
  6
CONTINUOUS
 10
286.641
 20
35.021
 30
0.0
 11
286.641
 21
35.171
 31
0.0
  0
LINE
  8
1
  6
CONTINUOUS
 10
286.641
 20
35.821
 30
0.0
 11
286.641
 21
35.671
 31
0.0
  0
LINE
  8
1
  6
CONTINUOUS
 10
286.622
 20
35.208
 30
0.0
 11
286.66
 21
35.134
 31
0.0
  0
LINE
  8
1
  6
CONTINUOUS
 10
286.66
 20
35.634
 30
0.0
 11
286.622
 21
35.708
 31
0.0
  0
LINE
  8
1
  6
CONTINUOUS
 10
285.888
 20
35.671
 30
0.0
 11
286.679
 21
35.671
 31
0.0
  0
TEXT
  8
1
  6
CONTINUOUS
 10
286.896
 20
34.911
 30
0.0
 40
0.075
  1
1.30
 50
90.0
  7
ROMANC
  0
LINE
  8
1
  6
CONTINUOUS
 10
286.858
 20
34.873
 30
0.0
 11
286.858
 21
34.371
 31
0.0
  0
LINE
  8
1
  6
CONTINUOUS
 10
286.858
 20
35.168
 30
0.0
 11
286.858
 21
35.671
 31
0.0
  0
LINE
  8
1
  6
CONTINUOUS
 10
286.877
 20
34.334
 30
0.0
 11
286.839
 21
34.408
 31
0.0
  0
LINE
  8
1
  6
CONTINUOUS
 10
286.839
 20
35.708
 30
0.0
 11
286.877
 21
35.634
 31
0.0
  0
LINE
  8
1
  6
CONTINUOUS
 10
285.888
 20
34.371
 30
0.0
 11
286.896
 21
34.371
 31
0.0
  0
LINE
  8
1
  6
CONTINUOUS
 10
285.888
 20
35.671
 30
0.0
 11
286.896
 21
35.671
 31
0.0
  0
TEXT
  8
1
  6
CONTINUOUS
 10
285.74
 20
34.028
 30
0.0
 40
0.075
  1
1.00
  7
ROMANC
  0
LINE
  8
1
  6
CONTINUOUS
 10
285.702
 20
34.066
 30
0.0
 11
285.35
 21
34.066
 31
0.0
  0
LINE
  8
1
  6
CONTINUOUS
 10
285.997
 20
34.066
 30
0.0
 11
286.35
 21
34.066
 31
0.0
  0
LINE
  8
1
  6
CONTINUOUS
 10
285.312
 20
34.047
 30
0.0
 11
285.388
 21
34.085
 31
0.0
  0
LINE
  8
1
  6
CONTINUOUS
 10
286.388
 20
34.085
 30
0.0
 11
286.312
 21
34.047
 31
0.0
  0
LINE
  8
1
  6
CONTINUOUS
 10
285.35
 20
34.483
 30
0.0
 11
285.35
 21
34.028
 31
0.0
  0
LINE
  8
1
  6
CONTINUOUS
 10
286.35
 20
34.483
 30
0.0
 11
286.35
 21
34.028
 31
0.0
  0
TEXT
  8
1
  6
CONTINUOUS
 10
284.926
 20
34.146
 30
0.0
 40
0.075
  1
0.25
  7
ROMANC
  0
LINE
  8
1
  6
CONTINUOUS
 10
285.276
 20
34.183
 30
0.0
 11
285.35
 21
34.183
 31
0.0
  0
LINE
  8
1
  6
CONTINUOUS
 10
285.677
 20
34.183
 30
0.0
 11
285.6
 21
34.183
 31
0.0
  0
LINE
  8
1
  6
CONTINUOUS
 10
285.388
 20
34.202
 30
0.0
 11
285.312
 21
34.164
 31
0.0
  0
LINE
  8
1
  6
CONTINUOUS
 10
285.562
 20
34.164
 30
0.0
 11
285.638
 21
34.202
 31
0.0
  0
LINE
  8
1
  6
CONTINUOUS
 10
285.35
 20
34.483
 30
0.0
 11
285.35
 21
34.145
 31
0.0
  0
LINE
  8
1
  6
CONTINUOUS
 10
285.6
 20
34.483
 30
0.0
 11
285.6
 21
34.145
 31
0.0
  0
TEXT
  8
1
  6
CONTINUOUS
 10
285.722
 20
34.146
 30
0.0
 40
0.075
  1
0.50
  7
ROMANC
  0
POINT
  8
1
  6
CONTINUOUS
 10
285.6
 20
34.183
 30
0.0
  0
LINE
  8
1
  6
CONTINUOUS
 10
286.095
 20
34.183
 30
0.0
 11
286.1
 21
34.183
 31
0.0
  0
LINE
  8
1
  6
CONTINUOUS
 10
285.638
 20
34.202
 30
0.0
 11
285.562
 21
34.164
 31
0.0
  0
LINE
  8
1
  6
CONTINUOUS
 10
286.062
 20
34.164
 30
0.0
 11
286.138
 21
34.202
 31
0.0
  0
LINE
  8
1
  6
CONTINUOUS
 10
286.1
 20
34.483
 30
0.0
 11
286.1
 21
34.145
 31
0.0
  0
TEXT
  8
1
  6
CONTINUOUS
 10
286.502
 20
34.146
 30
0.0
 40
0.075
  1
0.25
  7
ROMANC
  0
LINE
  8
1
  6
CONTINUOUS
 10
285.997
 20
34.183
 30
0.0
 11
286.1
 21
34.183
 31
0.0
  0
LINE
  8
1
  6
CONTINUOUS
 10
286.464
 20
34.183
 30
0.0
 11
286.35
 21
34.183
 31
0.0
  0
LINE
  8
1
  6
CONTINUOUS
 10
286.138
 20
34.202
 30
0.0
 11
286.062
 21
34.164
 31
0.0
  0
LINE
  8
1
  6
CONTINUOUS
 10
286.312
 20
34.164
 30
0.0
 11
286.388
 21
34.202
 31
0.0
  0
LINE
  8
1
  6
CONTINUOUS
 10
286.1
 20
34.483
 30
0.0
 11
286.1
 21
34.145
 31
0.0
  0
LINE
  8
1
  6
CONTINUOUS
 10
286.35
 20
34.483
 30
0.0
 11
286.35
 21
34.145
 31
0.0
  0
LINE
  8
1
  6
CONTINUOUS
 10
286.36
 20
35.171
 30
0.0
 11
286.36
 21
34.511
 31
0.0
  0
LINE
  8
1
  6
CONTINUOUS
 10
286.37
 20
35.171
 30
0.0
 11
286.37
 21
34.501
 31
0.0
  0
LINE
  8
1
  6
CONTINUOUS
 10
286.36
 20
34.511
 30
0.0
 11
286.106
 21
34.511
 31
0.0
  0
LINE
  8
1
  6
CONTINUOUS
 10
286.37
 20
34.501
 30
0.0
 11
286.112
 21
34.501
 31
0.0
  0
ARC
  8
1
  6
CONTINUOUS
 10
285.85
 20
34.654333
 30
0.0
 40
0.293333
 50
209.250994
 51
330.749006
  0
ARC
  8
1
  6
CONTINUOUS
 10
285.85
 20
34.654333
 30
0.0
 40
0.303333
 50
210.364183
 51
329.635817
  0
LINE
  8
1
  6
CONTINUOUS
 10
285.594
 20
34.511
 30
0.0
 11
285.34
 21
34.511
 31
0.0
  0
LINE
  8
1
  6
CONTINUOUS
 10
285.588
 20
34.501
 30
0.0
 11
285.33
 21
34.501
 31
0.0
  0
LINE
  8
1
  6
CONTINUOUS
 10
285.34
 20
34.511
 30
0.0
 11
285.34
 21
35.171
 31
0.0
  0
LINE
  8
1
  6
CONTINUOUS
 10
285.33
 20
34.501
 30
0.0
 11
285.33
 21
35.171
 31
0.0
  0
ARC
  8
1
  6
CONTINUOUS
 10
285.85
 20
35.171
 30
0.0
 40
0.51
 50
0.0
 51
180.0
  0
ARC
  8
1
  6
CONTINUOUS
 10
285.85
 20
35.171
 30
0.0
 40
0.52
 50
0.0
 51
180.0
  0
LINE
  8
0
  6
BYBLOCK
 62
     0
 10
285.33
 20
35.2335
 30
0.0
 11
285.33
 21
36.173062
 31
0.0
  0
LINE
  8
0
  6
BYBLOCK
 62
     0
 10
286.37
 20
35.2335
 30
0.0
 11
286.37
 21
36.173062
 31
0.0
  0
LINE
  8
0
  6
BYBLOCK
 62
     0
 10
285.33
 20
36.143062
 30
0.0
 11
285.6725
 21
36.143062
 31
0.0
  0
LINE
  8
0
  6
BYBLOCK
 62
     0
 10
286.37
 20
36.143062
 30
0.0
 11
286.0275
 21
36.143062
 31
0.0
  0
LINE
  8
0
  6
BYBLOCK
 62
     0
 10
285.3
 20
36.113062
 30
0.0
 11
285.36
 21
36.173062
 31
0.0
  0
LINE
  8
0
  6
BYBLOCK
 62
     0
 10
286.34
 20
36.113062
 30
0.0
 11
286.4
 21
36.173062
 31
0.0
  0
POINT
  8
DEFPOINTS
  6
BYBLOCK
 62
     0
 10
285.33
 20
35.171
 30
0.0
  0
POINT
  8
DEFPOINTS
  6
BYBLOCK
 62
     0
 10
286.37
 20
35.171
 30
0.0
  0
POINT
  8
DEFPOINTS
  6
BYBLOCK
 62
     0
 10
286.37
 20
36.143062
 30
0.0
  0
TEXT
  8
0
 10
285.707587
 20
36.109215
 30
0.0
 40
0.075
  1
1.00
  7
ROMANC
  0
ENDSEC
  0
EOF
