  0
SECTION
  2
HEADER
  9
$ACADVER
  1
AC1009
  9
$INSBASE
 10
0.0
 20
0.0
 30
0.0
  9
$EXTMIN
 10
281.396
 20
29.897
 30
0.0
  9
$EXTMAX
 10
291.896
 20
44.747
 30
0.0
  9
$LIMMIN
 10
280.396
 20
28.897
  9
$LIMMAX
 10
292.896
 20
43.747
  9
$ORTHOMODE
 70
     0
  9
$REGENMODE
 70
     1
  9
$FILLMODE
 70
     1
  9
$QTEXTMODE
 70
     0
  9
$MIRRTEXT
 70
     1
  9
$DRAGMODE
 70
     2
  9
$LTSCALE
 40
1.0
  9
$OSMODE
 70
     0
  9
$ATTMODE
 70
     1
  9
$TEXTSIZE
 40
0.2
  9
$TRACEWID
 40
0.05
  9
$TEXTSTYLE
  7
ROMANC
  9
$CLAYER
  8
0
  9
$CELTYPE
  6
BYLAYER
  9
$CECOLOR
 62
   256
  9
$DIMSCALE
 40
1.0
  9
$DIMASZ
 40
0.0
  9
$DIMEXO
 40
0.0625
  9
$DIMDLI
 40
0.38
  9
$DIMRND
 40
0.0
  9
$DIMDLE
 40
0.0
  9
$DIMEXE
 40
0.03
  9
$DIMTP
 40
0.0
  9
$DIMTM
 40
0.0
  9
$DIMTXT
 40
0.075
  9
$DIMCEN
 40
0.09
  9
$DIMTSZ
 40
0.03
  9
$DIMTOL
 70
     0
  9
$DIMLIM
 70
     0
  9
$DIMTIH
 70
     1
  9
$DIMTOH
 70
     1
  9
$DIMSE1
 70
     0
  9
$DIMSE2
 70
     0
  9
$DIMTAD
 70
     0
  9
$DIMZIN
 70
     0
  9
$DIMBLK
  1

  9
$DIMASO
 70
     1
  9
$DIMSHO
 70
     1
  9
$DIMPOST
  1

  9
$DIMAPOST
  1

  9
$DIMALT
 70
     0
  9
$DIMALTD
 70
     2
  9
$DIMALTF
 40
25.4
  9
$DIMLFAC
 40
1.0
  9
$DIMTOFL
 70
     0
  9
$DIMTVP
 40
0.0
  9
$DIMTIX
 70
     0
  9
$DIMSOXD
 70
     0
  9
$DIMSAH
 70
     0
  9
$DIMBLK1
  1

  9
$DIMBLK2
  1

  9
$DIMSTYLE
  2
*UNNAMED
  9
$DIMCLRD
 70
     0
  9
$DIMCLRE
 70
     0
  9
$DIMCLRT
 70
     0
  9
$DIMTFAC
 40
2.4
  9
$DIMGAP
 40
0.09
  9
$LUNITS
 70
     2
  9
$LUPREC
 70
     4
  9
$SKETCHINC
 40
0.1
  9
$FILLETRAD
 40
0.0
  9
$AUNITS
 70
     0
  9
$AUPREC
 70
     0
  9
$MENU
  1
acad
  9
$ELEVATION
 40
0.0
  9
$PELEVATION
 40
0.0
  9
$THICKNESS
 40
0.0
  9
$LIMCHECK
 70
     0
  9
$BLIPMODE
 70
     1
  9
$CHAMFERA
 40
0.0
  9
$CHAMFERB
 40
0.0
  9
$SKPOLY
 70
     0
  9
$TDCREATE
 40
2448315.373408102
  9
$TDUPDATE
 40
2448315.373408102
  9
$TDINDWG
 40
0.0000000000
  9
$TDUSRTIMER
 40
0.0000000000
  9
$USRTIMER
 70
     1
  9
$ANGBASE
 50
0.0
  9
$ANGDIR
 70
     0
  9
$PDMODE
 70
     0
  9
$PDSIZE
 40
0.0
  9
$PLINEWID
 40
0.0
  9
$COORDS
 70
     0
  9
$SPLFRAME
 70
     0
  9
$SPLINETYPE
 70
     6
  9
$SPLINESEGS
 70
     8
  9
$ATTDIA
 70
     0
  9
$ATTREQ
 70
     1
  9
$HANDLING
 70
     0
  9
$HANDSEED
  5
0
  9
$SURFTAB1
 70
     6
  9
$SURFTAB2
 70
     6
  9
$SURFTYPE
 70
     6
  9
$SURFU
 70
     6
  9
$SURFV
 70
     6
  9
$UCSNAME
  2

  9
$UCSORG
 10
0.0
 20
0.0
 30
0.0
  9
$UCSXDIR
 10
1.0
 20
0.0
 30
0.0
  9
$UCSYDIR
 10
0.0
 20
1.0
 30
0.0
  9
$PUCSNAME
  2

  9
$PUCSORG
 10
0.0
 20
0.0
 30
0.0
  9
$PUCSXDIR
 10
1.0
 20
0.0
 30
0.0
  9
$PUCSYDIR
 10
0.0
 20
1.0
 30
0.0
  9
$USERI1
 70
     0
  9
$USERI2
 70
     0
  9
$USERI3
 70
     0
  9
$USERI4
 70
     0
  9
$USERI5
 70
     0
  9
$USERR1
 40
0.0
  9
$USERR2
 40
0.0
  9
$USERR3
 40
0.0
  9
$USERR4
 40
0.0
  9
$USERR5
 40
0.0
  9
$WORLDVIEW
 70
     1
  9
$SHADEDGE
 70
     3
  9
$SHADEDIF
 70
    70
  9
$TILEMODE
 70
     1
  9
$MAXACTVP
 70
    16
  9
$PINSBASE
 10
0.0
 20
0.0
 30
0.0
  9
$PLIMCHECK
 70
     0
  9
$PEXTMIN
 10
1.000000E+20
 20
1.000000E+20
 30
1.000000E+20
  9
$PEXTMAX
 10
-1.000000E+20
 20
-1.000000E+20
 30
-1.000000E+20
  9
$PLIMMIN
 10
0.0
 20
0.0
  9
$PLIMMAX
 10
12.0
 20
9.0
  9
$UNITMODE
 70
     0
  9
$VISRETAIN
 70
     0
  9
$PLINEGEN
 70
     0
  9
$PSLTSCALE
 70
     0
  9
$TREEDEPTH
 70
  3020
  9
$DWGCODEPAGE
  3
iso8859-1
  0
ENDSEC
  0
SECTION
  2
TABLES
  0
TABLE
  2
VPORT
 70
     2
  0
VPORT
  2
*ACTIVE
 70
     0
 10
0.0
 20
0.0
 11
1.0
 21
1.0
 12
293.35785
 22
37.322
 13
0.0
 23
0.0
 14
1.0
 24
1.0
 15
10.0
 25
10.0
 16
0.0
 26
0.0
 36
1.0
 17
0.0
 27
0.0
 37
0.0
 40
14.85
 41
1.611024
 42
50.0
 43
0.0
 44
0.0
 50
0.0
 51
0.0
 71
     0
 72
   100
 73
     1
 74
     0
 75
     0
 76
     0
 77
     0
 78
     0
  0
ENDTAB
  0
TABLE
  2
LTYPE
 70
     1
  0
LTYPE
  2
CONTINUOUS
 70
    64
  3
Solid line
 72
    65
 73
     0
 40
0.0
  0
ENDTAB
  0
TABLE
  2
LAYER
 70
     8
  0
LAYER
  2
0
 70
    64
 62
     7
  6
CONTINUOUS
  0
LAYER
  2
1
 70
    64
 62
     7
  6
CONTINUOUS
  0
LAYER
  2
7
 70
    64
 62
     7
  6
CONTINUOUS
  0
LAYER
  2
8
 70
    64
 62
     7
  6
CONTINUOUS
  0
LAYER
  2
9
 70
    64
 62
     7
  6
CONTINUOUS
  0
LAYER
  2
22
 70
    64
 62
     7
  6
CONTINUOUS
  0
LAYER
  2
25
 70
    64
 62
     7
  6
CONTINUOUS
  0
LAYER
  2
DEFPOINTS
 70
    64
 62
     7
  6
CONTINUOUS
  0
ENDTAB
  0
TABLE
  2
STYLE
 70
     2
  0
STYLE
  2
STANDARD
 70
     0
 40
0.0
 41
1.0
 50
0.0
 71
     0
 42
3.5
  3
txt
  4

  0
STYLE
  2
ROMANC
 70
    64
 40
0.0
 41
1.0
 50
0.0
 71
     0
 42
0.2
  3
romanc
  4

  0
ENDTAB
  0
TABLE
  2
VIEW
 70
     0
  0
ENDTAB
  0
TABLE
  2
UCS
 70
     0
  0
ENDTAB
  0
TABLE
  2
APPID
 70
     1
  0
APPID
  2
ACAD
 70
    64
  0
ENDTAB
  0
TABLE
  2
DIMSTYLE
 70
     0
  0
ENDTAB
  0
ENDSEC
  0
SECTION
  2
BLOCKS
  0
BLOCK
  8
0
  2
*D0
 70
    65
 10
0.0
 20
0.0
 30
0.0
  3
*D
  0
LINE
  8
0
  6
BYBLOCK
 62
     0
 10
285.268
 20
35.7455
 30
0.0
 11
285.268
 21
36.475771
 31
0.0
  0
LINE
  8
0
  6
BYBLOCK
 62
     0
 10
286.168
 20
35.7455
 30
0.0
 11
286.168
 21
36.475771
 31
0.0
  0
LINE
  8
0
  6
BYBLOCK
 62
     0
 10
285.268
 20
36.445771
 30
0.0
 11
285.4655
 21
36.445771
 31
0.0
  0
LINE
  8
0
  6
BYBLOCK
 62
     0
 10
286.168
 20
36.445771
 30
0.0
 11
285.9705
 21
36.445771
 31
0.0
  0
LINE
  8
0
  6
BYBLOCK
 62
     0
 10
285.238
 20
36.415771
 30
0.0
 11
285.298
 21
36.475771
 31
0.0
  0
LINE
  8
0
  6
BYBLOCK
 62
     0
 10
286.138
 20
36.415771
 30
0.0
 11
286.198
 21
36.475771
 31
0.0
  0
TEXT
  8
0
  6
BYBLOCK
 62
     0
 10
285.5555
 20
36.408271
 30
0.0
 40
0.075
  1
0.9000
 72
     1
 11
285.718
 21
36.445771
 31
0.0
 73
     2
  0
POINT
  8
DEFPOINTS
  6
BYBLOCK
 62
     0
 10
285.268
 20
35.683
 30
0.0
  0
POINT
  8
DEFPOINTS
  6
BYBLOCK
 62
     0
 10
286.168
 20
35.683
 30
0.0
  0
POINT
  8
DEFPOINTS
  6
BYBLOCK
 62
     0
 10
286.168
 20
36.445771
 30
0.0
  0
ENDBLK
  8
0
  0
BLOCK
  8
0
  2
*D1
 70
    65
 10
0.0
 20
0.0
 30
0.0
  3
*D
  0
LINE
  8
0
  6
BYBLOCK
 62
     0
 10
285.268
 20
35.7455
 30
0.0
 11
285.268
 21
36.481104
 31
0.0
  0
LINE
  8
0
  6
BYBLOCK
 62
     0
 10
286.168
 20
35.7455
 30
0.0
 11
286.168
 21
36.481104
 31
0.0
  0
LINE
  8
0
  6
BYBLOCK
 62
     0
 10
285.268
 20
36.451104
 30
0.0
 11
285.513714
 21
36.451104
 31
0.0
  0
LINE
  8
0
  6
BYBLOCK
 62
     0
 10
286.168
 20
36.451104
 30
0.0
 11
285.922286
 21
36.451104
 31
0.0
  0
LINE
  8
0
  6
BYBLOCK
 62
     0
 10
285.238
 20
36.421104
 30
0.0
 11
285.298
 21
36.481104
 31
0.0
  0
LINE
  8
0
  6
BYBLOCK
 62
     0
 10
286.138
 20
36.421104
 30
0.0
 11
286.198
 21
36.481104
 31
0.0
  0
TEXT
  8
0
  6
BYBLOCK
 62
     0
 10
285.593
 20
36.413604
 30
0.0
 40
0.075
  1
0.90
  7
ROMANC
 72
     1
 11
285.718
 21
36.451104
 31
0.0
 73
     2
  0
POINT
  8
DEFPOINTS
  6
BYBLOCK
 62
     0
 10
285.268
 20
35.683
 30
0.0
  0
POINT
  8
DEFPOINTS
  6
BYBLOCK
 62
     0
 10
286.168
 20
35.683
 30
0.0
  0
POINT
  8
DEFPOINTS
  6
BYBLOCK
 62
     0
 10
286.168
 20
36.451104
 30
0.0
  0
ENDBLK
  8
0
  0
ENDSEC
  0
SECTION
  2
ENTITIES
  0
TEXT
  8
0
  6
CONTINUOUS
 10
286.909
 20
41.324
 30
0.0
 40
0.1
  1
2
  7
ROMANC
  0
TEXT
  8
0
  6
CONTINUOUS
 10
283.926
 20
41.768
 30
0.0
 40
0.3
  1
ESCALA  1:50
  7
ROMANC
  0
POLYLINE
  8
0
  6
CONTINUOUS
 66
     1
 10
0.0
 20
0.0
 30
0.0
 70
     1
  0
VERTEX
  8
0
  6
CONTINUOUS
 10
281.396
 20
44.747
 30
0.0
  0
VERTEX
  8
0
  6
CONTINUOUS
 10
291.896
 20
44.747
 30
0.0
  0
VERTEX
  8
0
  6
CONTINUOUS
 10
291.896
 20
29.897
 30
0.0
  0
VERTEX
  8
0
  6
CONTINUOUS
 10
281.396
 20
29.897
 30
0.0
  0
SEQEND
  8
0
  0
TEXT
  8
0
  6
CONTINUOUS
 10
283.926
 20
42.381
 30
0.0
 40
0.3
  1
TIPUS   T108
  7
ROMANC
  0
ARC
  8
1
  6
CONTINUOUS
 10
285.718
 20
35.683
 30
0.0
 40
0.45
 50
0.0
 51
180.0
  0
TEXT
  8
0
  6
CONTINUOUS
 10
283.922
 20
40.529
 30
0.0
 40
0.3
  1
P = 41 dm
  7
ROMANC
  0
TEXT
  8
0
  6
CONTINUOUS
 10
283.945
 20
41.099
 30
0.0
 40
0.3
  1
S = 108 dm
  7
ROMANC
  0
LINE
  8
1
  6
CONTINUOUS
 10
285.368
 20
34.783
 30
0.0
 11
285.518
 21
34.783
 31
0.0
  0
ARC
  8
1
  6
CONTINUOUS
 10
285.718
 20
34.841333
 30
0.0
 40
0.208333
 50
196.260206
 51
343.739797
  0
TEXT
  8
1
  6
CONTINUOUS
 10
284.962
 20
34.516
 30
0.0
 40
0.075
  1
0.15
  7
ROMANC
  0
LINE
  8
1
  6
CONTINUOUS
 10
285.295
 20
34.553
 30
0.0
 11
285.368
 21
34.553
 31
0.0
  0
LINE
  8
1
  6
CONTINUOUS
 10
285.668
 20
34.553
 30
0.0
 11
285.518
 21
34.553
 31
0.0
  0
LINE
  8
1
  6
CONTINUOUS
 10
285.406
 20
34.572
 30
0.0
 11
285.33
 21
34.534
 31
0.0
  0
LINE
  8
1
  6
CONTINUOUS
 10
285.48
 20
34.534
 30
0.0
 11
285.556
 21
34.572
 31
0.0
  0
LINE
  8
1
  6
CONTINUOUS
 10
285.368
 20
34.745
 30
0.0
 11
285.368
 21
34.515
 31
0.0
  0
LINE
  8
1
  6
CONTINUOUS
 10
285.518
 20
34.745
 30
0.0
 11
285.518
 21
34.515
 31
0.0
  0
LINE
  8
1
  6
CONTINUOUS
 10
285.918
 20
34.783
 30
0.0
 11
286.068
 21
34.783
 31
0.0
  0
TEXT
  8
1
  6
CONTINUOUS
 10
285.596
 20
34.416
 30
0.0
 40
0.075
  1
0.40
  7
ROMANC
  0
LINE
  8
1
  6
CONTINUOUS
 10
285.368
 20
34.453
 30
0.0
 11
285.518
 21
34.453
 31
0.0
  0
LINE
  8
1
  6
CONTINUOUS
 10
286.068
 20
34.453
 30
0.0
 11
285.918
 21
34.453
 31
0.0
  0
LINE
  8
1
  6
CONTINUOUS
 10
285.556
 20
34.472
 30
0.0
 11
285.48
 21
34.434
 31
0.0
  0
LINE
  8
1
  6
CONTINUOUS
 10
285.88
 20
34.434
 30
0.0
 11
285.956
 21
34.472
 31
0.0
  0
LINE
  8
1
  6
CONTINUOUS
 10
285.518
 20
34.745
 30
0.0
 11
285.518
 21
34.415
 31
0.0
  0
LINE
  8
1
  6
CONTINUOUS
 10
285.918
 20
34.745
 30
0.0
 11
285.918
 21
34.415
 31
0.0
  0
LINE
  8
1
  6
CONTINUOUS
 10
286.068
 20
34.783
 30
0.0
 11
286.168
 21
35.683
 31
0.0
  0
TEXT
  8
1
  6
CONTINUOUS
 10
286.247
 20
34.516
 30
0.0
 40
0.075
  1
0.15
  7
ROMANC
  0
LINE
  8
1
  6
CONTINUOUS
 10
285.768
 20
34.553
 30
0.0
 11
285.918
 21
34.553
 31
0.0
  0
LINE
  8
1
  6
CONTINUOUS
 10
286.209
 20
34.553
 30
0.0
 11
286.068
 21
34.553
 31
0.0
  0
LINE
  8
1
  6
CONTINUOUS
 10
285.956
 20
34.572
 30
0.0
 11
285.88
 21
34.534
 31
0.0
  0
LINE
  8
1
  6
CONTINUOUS
 10
286.03
 20
34.534
 30
0.0
 11
286.106
 21
34.572
 31
0.0
  0
LINE
  8
1
  6
CONTINUOUS
 10
285.918
 20
34.745
 30
0.0
 11
285.918
 21
34.515
 31
0.0
  0
LINE
  8
1
  6
CONTINUOUS
 10
286.068
 20
34.745
 30
0.0
 11
286.068
 21
34.515
 31
0.0
  0
TEXT
  8
1
  6
CONTINUOUS
 10
286.262
 20
34.937
 30
0.0
 40
0.075
  1
0.15
 50
90.0
  7
ROMANC
  0
LINE
  8
1
  6
CONTINUOUS
 10
286.225
 20
34.483
 30
0.0
 11
286.225
 21
34.633
 31
0.0
  0
LINE
  8
1
  6
CONTINUOUS
 10
286.225
 20
34.899
 30
0.0
 11
286.225
 21
34.783
 31
0.0
  0
LINE
  8
1
  6
CONTINUOUS
 10
286.206
 20
34.67
 30
0.0
 11
286.244
 21
34.596
 31
0.0
  0
LINE
  8
1
  6
CONTINUOUS
 10
286.244
 20
34.746
 30
0.0
 11
286.206
 21
34.82
 31
0.0
  0
LINE
  8
1
  6
CONTINUOUS
 10
285.756
 20
34.633
 30
0.0
 11
286.263
 21
34.633
 31
0.0
  0
LINE
  8
1
  6
CONTINUOUS
 10
286.106
 20
34.783
 30
0.0
 11
286.263
 21
34.783
 31
0.0
  0
TEXT
  8
1
  6
CONTINUOUS
 10
286.384
 20
35.114
 30
0.0
 40
0.075
  1
0.90
 50
90.0
  7
ROMANC
  0
LINE
  8
1
  6
CONTINUOUS
 10
286.346
 20
35.076
 30
0.0
 11
286.346
 21
34.783
 31
0.0
  0
LINE
  8
1
  6
CONTINUOUS
 10
286.346
 20
35.388
 30
0.0
 11
286.346
 21
35.683
 31
0.0
  0
LINE
  8
1
  6
CONTINUOUS
 10
286.365
 20
34.746
 30
0.0
 11
286.327
 21
34.82
 31
0.0
  0
LINE
  8
1
  6
CONTINUOUS
 10
286.327
 20
35.72
 30
0.0
 11
286.365
 21
35.646
 31
0.0
  0
LINE
  8
1
  6
CONTINUOUS
 10
286.106
 20
34.783
 30
0.0
 11
286.384
 21
34.783
 31
0.0
  0
LINE
  8
1
  6
CONTINUOUS
 10
286.206
 20
35.683
 30
0.0
 11
286.384
 21
35.683
 31
0.0
  0
TEXT
  8
1
  6
CONTINUOUS
 10
286.384
 20
35.786
 30
0.0
 40
0.075
  1
0.45
 50
90.0
  7
ROMANC
  0
LINE
  8
1
  6
CONTINUOUS
 10
286.346
 20
35.533
 30
0.0
 11
286.346
 21
35.683
 31
0.0
  0
LINE
  8
1
  6
CONTINUOUS
 10
286.346
 20
36.283
 30
0.0
 11
286.346
 21
36.133
 31
0.0
  0
LINE
  8
1
  6
CONTINUOUS
 10
286.327
 20
35.72
 30
0.0
 11
286.365
 21
35.646
 31
0.0
  0
LINE
  8
1
  6
CONTINUOUS
 10
286.365
 20
36.096
 30
0.0
 11
286.327
 21
36.17
 31
0.0
  0
LINE
  8
1
  6
CONTINUOUS
 10
285.756
 20
36.133
 30
0.0
 11
286.384
 21
36.133
 31
0.0
  0
TEXT
  8
1
  6
CONTINUOUS
 10
286.576
 20
35.273
 30
0.0
 40
0.075
  1
1.50
 50
90.0
  7
ROMANC
  0
LINE
  8
1
  6
CONTINUOUS
 10
286.538
 20
35.235
 30
0.0
 11
286.538
 21
34.633
 31
0.0
  0
LINE
  8
1
  6
CONTINUOUS
 10
286.538
 20
35.53
 30
0.0
 11
286.538
 21
36.133
 31
0.0
  0
LINE
  8
1
  6
CONTINUOUS
 10
286.557
 20
34.596
 30
0.0
 11
286.519
 21
34.67
 31
0.0
  0
LINE
  8
1
  6
CONTINUOUS
 10
286.519
 20
36.17
 30
0.0
 11
286.557
 21
36.096
 31
0.0
  0
LINE
  8
1
  6
CONTINUOUS
 10
285.756
 20
34.633
 30
0.0
 11
286.576
 21
34.633
 31
0.0
  0
LINE
  8
1
  6
CONTINUOUS
 10
285.756
 20
36.133
 30
0.0
 11
286.576
 21
36.133
 31
0.0
  0
LINE
  8
1
  6
CONTINUOUS
 10
285.268
 20
35.683
 30
0.0
 11
285.368
 21
34.783
 31
0.0
  0
TEXT
  8
1
  6
CONTINUOUS
 10
285.599
 20
34.276
 30
0.0
 40
0.075
  1
0.70
  7
ROMANC
  0
LINE
  8
1
  6
CONTINUOUS
 10
285.561
 20
34.314
 30
0.0
 11
285.368
 21
34.314
 31
0.0
  0
LINE
  8
1
  6
CONTINUOUS
 10
285.873
 20
34.314
 30
0.0
 11
286.068
 21
34.314
 31
0.0
  0
LINE
  8
1
  6
CONTINUOUS
 10
285.33
 20
34.295
 30
0.0
 11
285.406
 21
34.333
 31
0.0
  0
LINE
  8
1
  6
CONTINUOUS
 10
286.106
 20
34.333
 30
0.0
 11
286.03
 21
34.295
 31
0.0
  0
LINE
  8
1
  6
CONTINUOUS
 10
285.368
 20
34.745
 30
0.0
 11
285.368
 21
34.276
 31
0.0
  0
LINE
  8
1
  6
CONTINUOUS
 10
286.068
 20
34.745
 30
0.0
 11
286.068
 21
34.276
 31
0.0
  0
ARC
  8
1
  6
CONTINUOUS
 10
285.718
 20
35.683
 30
0.0
 40
0.46
 50
0.818169
 51
180.254181
  0
ARC
  8
1
  6
CONTINUOUS
 10
285.718
 20
35.683
 30
0.0
 40
0.47
 50
0.692622
 51
180.376864
  0
LINE
  8
1
  6
CONTINUOUS
 10
286.076
 20
34.773
 30
0.0
 11
286.178
 21
35.69
 31
0.0
  0
LINE
  8
1
  6
CONTINUOUS
 10
286.085
 20
34.763
 30
0.0
 11
286.188
 21
35.689
 31
0.0
  0
LINE
  8
1
  6
CONTINUOUS
 10
285.258
 20
35.681
 30
0.0
 11
285.359
 21
34.773
 31
0.0
  0
LINE
  8
1
  6
CONTINUOUS
 10
285.248
 20
35.68
 30
0.0
 11
285.35
 21
34.763
 31
0.0
  0
LINE
  8
1
  6
CONTINUOUS
 10
285.359
 20
34.773
 30
0.0
 11
285.511
 21
34.773
 31
0.0
  0
LINE
  8
1
  6
CONTINUOUS
 10
285.35
 20
34.763
 30
0.0
 11
285.504
 21
34.763
 31
0.0
  0
ARC
  8
1
  6
CONTINUOUS
 10
285.718
 20
34.841333
 30
0.0
 40
0.218333
 50
198.238736
 51
341.761264
  0
ARC
  8
1
  6
CONTINUOUS
 10
285.718
 20
34.841333
 30
0.0
 40
0.228333
 50
200.063764
 51
339.936236
  0
LINE
  8
1
  6
CONTINUOUS
 10
285.925
 20
34.773
 30
0.0
 11
286.076
 21
34.773
 31
0.0
  0
LINE
  8
1
  6
CONTINUOUS
 10
285.932
 20
34.763
 30
0.0
 11
286.085
 21
34.763
 31
0.0
  0
LINE
  8
0
  6
BYBLOCK
 62
     0
 10
285.268
 20
35.7455
 30
0.0
 11
285.268
 21
36.481104
 31
0.0
  0
LINE
  8
0
  6
BYBLOCK
 62
     0
 10
286.168
 20
35.7455
 30
0.0
 11
286.168
 21
36.481104
 31
0.0
  0
LINE
  8
0
  6
BYBLOCK
 62
     0
 10
285.268
 20
36.451104
 30
0.0
 11
285.513714
 21
36.451104
 31
0.0
  0
LINE
  8
0
  6
BYBLOCK
 62
     0
 10
286.168
 20
36.451104
 30
0.0
 11
285.922286
 21
36.451104
 31
0.0
  0
LINE
  8
0
  6
BYBLOCK
 62
     0
 10
285.238
 20
36.421104
 30
0.0
 11
285.298
 21
36.481104
 31
0.0
  0
LINE
  8
0
  6
BYBLOCK
 62
     0
 10
286.138
 20
36.421104
 30
0.0
 11
286.198
 21
36.481104
 31
0.0
  0
TEXT
  8
0
  6
BYBLOCK
 62
     0
 10
285.593
 20
36.413604
 30
0.0
 40
0.075
  1
0.90
  7
ROMANC
 72
     1
 11
285.718
 21
36.451104
 31
0.0
 73
     2
  0
POINT
  8
DEFPOINTS
  6
BYBLOCK
 62
     0
 10
285.268
 20
35.683
 30
0.0
  0
POINT
  8
DEFPOINTS
  6
BYBLOCK
 62
     0
 10
286.168
 20
35.683
 30
0.0
  0
POINT
  8
DEFPOINTS
  6
BYBLOCK
 62
     0
 10
286.168
 20
36.451104
 30
0.0
  0
ENDSEC
  0
EOF
