  0
SECTION
  2
HEADER
  9
$ACADVER
  1
AC1009
  9
$INSBASE
 10
0.0
 20
0.0
 30
0.0
  9
$EXTMIN
 10
281.396000
 20
29.897000
 30
-2147483.648000
  9
$EXTMAX
 10
291.896000
 20
44.747000
 30
0.000000
  9
$LIMMIN
 10
280.396000
 20
28.897000
  9
$LIMMAX
 10
292.896000
 20
43.747000
  9
$ORTHOMODE
 70
     0
  9
$REGENMODE
 70
     1
  9
$FILLMODE
 70
     1
  9
$QTEXTMODE
 70
     0
  9
$MIRRTEXT
 70
     1
  9
$DRAGMODE
 70
     2
  9
$LTSCALE
 40
1.0
  9
$OSMODE
 70
     0
  9
$ATTMODE
 70
     1
  9
$TEXTSIZE
 40
0.2
  9
$TRACEWID
 40
0.05
  9
$TEXTSTYLE
  7
STANDARD
  9
$CLAYER
  8
0
  9
$CELTYPE
  6
BYLAYER
  9
$CECOLOR
 62
   256
  9
$DIMSCALE
 40
1.0
  9
$DIMASZ
 40
0.18
  9
$DIMEXO
 40
0.0625
  9
$DIMDLI
 40
0.38
  9
$DIMRND
 40
0.0
  9
$DIMDLE
 40
0.0
  9
$DIMEXE
 40
0.18
  9
$DIMTP
 40
0.0
  9
$DIMTM
 40
0.0
  9
$DIMTXT
 40
0.18
  9
$DIMCEN
 40
0.09
  9
$DIMTSZ
 40
0.0
  9
$DIMTOL
 70
     0
  9
$DIMLIM
 70
     0
  9
$DIMTIH
 70
     1
  9
$DIMTOH
 70
     1
  9
$DIMSE1
 70
     0
  9
$DIMSE2
 70
     0
  9
$DIMTAD
 70
     0
  9
$DIMZIN
 70
     0
  9
$DIMBLK
  1

  9
$DIMASO
 70
     1
  9
$DIMSHO
 70
     1
  9
$DIMPOST
  1

  9
$DIMAPOST
  1

  9
$DIMALT
 70
     0
  9
$DIMALTD
 70
     2
  9
$DIMALTF
 40
25.4
  9
$DIMLFAC
 40
1.0
  9
$DIMTOFL
 70
     0
  9
$DIMTVP
 40
0.0
  9
$DIMTIX
 70
     0
  9
$DIMSOXD
 70
     0
  9
$DIMSAH
 70
     0
  9
$DIMBLK1
  1

  9
$DIMBLK2
  1

  9
$DIMSTYLE
  2
*UNNAMED
  9
$DIMCLRD
 70
     0
  9
$DIMCLRE
 70
     0
  9
$DIMCLRT
 70
     0
  9
$DIMTFAC
 40
1.0
  9
$DIMGAP
 40
0.09
  9
$LUNITS
 70
     2
  9
$LUPREC
 70
     4
  9
$AXISMODE
 70
     0
  9
$AXISUNIT
 10
0.0
 20
0.0
  9
$SKETCHINC
 40
0.1
  9
$FILLETRAD
 40
0.0
  9
$AUNITS
 70
     0
  9
$AUPREC
 70
     0
  9
$MENU
  1
acad
  9
$ELEVATION
 40
0.0
  9
$PELEVATION
 40
0.0
  9
$THICKNESS
 40
0.0
  9
$LIMCHECK
 70
     0
  9
$BLIPMODE
 70
     1
  9
$CHAMFERA
 40
0.0
  9
$CHAMFERB
 40
0.0
  9
$SKPOLY
 70
     0
  9
$TDCREATE
 40
2448315.373408102
  9
$TDUPDATE
 40
2448315.373408102
  9
$TDINDWG
 40
0.0000000000
  9
$TDUSRTIMER
 40
0.0000000000
  9
$USRTIMER
 70
     1
  9
$ANGBASE
 50
0.0
  9
$ANGDIR
 70
     0
  9
$PDMODE
 70
     0
  9
$PDSIZE
 40
0.0
  9
$PLINEWID
 40
0.0
  9
$COORDS
 70
     0
  9
$SPLFRAME
 70
     0
  9
$SPLINETYPE
 70
     6
  9
$SPLINESEGS
 70
     8
  9
$ATTDIA
 70
     0
  9
$ATTREQ
 70
     1
  9
$HANDLING
 70
     0
  9
$HANDSEED
  5
0
  9
$SURFTAB1
 70
     6
  9
$SURFTAB2
 70
     6
  9
$SURFTYPE
 70
     6
  9
$SURFU
 70
     6
  9
$SURFV
 70
     6
  9
$UCSNAME
  2

  9
$UCSORG
 10
0.0
 20
0.0
 30
0.0
  9
$UCSXDIR
 10
1.0
 20
0.0
 30
0.0
  9
$UCSYDIR
 10
0.0
 20
1.0
 30
0.0
  9
$PUCSNAME
  2

  9
$PUCSORG
 10
0.0
 20
0.0
 30
0.0
  9
$PUCSXDIR
 10
1.0
 20
0.0
 30
0.0
  9
$PUCSYDIR
 10
0.0
 20
1.0
 30
0.0
  9
$USERI1
 70
     0
  9
$USERI2
 70
     0
  9
$USERI3
 70
     0
  9
$USERI4
 70
     0
  9
$USERI5
 70
     0
  9
$USERR1
 40
0.0
  9
$USERR2
 40
0.0
  9
$USERR3
 40
0.0
  9
$USERR4
 40
0.0
  9
$USERR5
 40
0.0
  9
$WORLDVIEW
 70
     1
  9
$SHADEDGE
 70
     3
  9
$SHADEDIF
 70
    70
  9
$TILEMODE
 70
     1
  9
$MAXACTVP
 70
    16
  9
$PINSBASE
 10
0.0
 20
0.0
 30
0.0
  9
$PLIMCHECK
 70
     0
  9
$PEXTMIN
 10
1.000000E+20
 20
1.000000E+20
 30
1.000000E+20
  9
$PEXTMAX
 10
-1.000000E+20
 20
-1.000000E+20
 30
-1.000000E+20
  9
$PLIMMIN
 10
0.0
 20
0.0
  9
$PLIMMAX
 10
12.0
 20
9.0
  9
$UNITMODE
 70
     0
  9
$VISRETAIN
 70
     0
  0
ENDSEC
  0
SECTION
  2
TABLES
  0
TABLE
  2
LTYPE
 70
    1
  0
LTYPE
  2
CONTINUOUS
 70
    64
3
Solid line
 72
    65
 73
0
 40
0.000000
  0
ENDTAB
  0
TABLE
  2
LAYER
 70
    8
  0
LAYER
  2
0
 70
    64
 62
7
  6
CONTINUOUS
  0
LAYER
  2
1
 70
    64
 62
7
  6
CONTINUOUS
  0
LAYER
  2
7
 70
    64
 62
7
  6
CONTINUOUS
  0
LAYER
  2
8
 70
    64
 62
7
  6
CONTINUOUS
  0
LAYER
  2
9
 70
    64
 62
7
  6
CONTINUOUS
  0
LAYER
  2
22
 70
    64
 62
7
  6
CONTINUOUS
  0
LAYER
  2
25
 70
    64
 62
7
  6
CONTINUOUS
  0
LAYER
  2
0
 70
    64
 62
7
  6
CONTINUOUS
  0
ENDTAB
  0
TABLE
  2
STYLE
 70
    1
  0
STYLE
  2
ROMANC
70
     0
 40
0.0
 41
1.0
 50
0.0
 71
     0
 42
0.2
  3
ROMANC
  4

  0
ENDTAB
  0
ENDSEC
  0
SECTION
  2
BLOCKS
  0
ENDSEC
  0
SECTION
  2
ENTITIES
  0
TEXT
  8
0
  6
CONTINUOUS
 40
0.100000
 10
286.909000
 20
41.324000
  1
2
  7
ROMANC
  0
TEXT
  8
0
  6
CONTINUOUS
 40
0.300000
 10
283.926000
 20
41.768000
  1
ESCALA  1:50
  7
ROMANC
  0
POLYLINE
  8
0
  6
CONTINUOUS
 66
     1
 70
     1
  0
VERTEX
  8
0
  6
CONTINUOUS
 10
281.396000
 20
44.747000
  0
VERTEX
  8
0
  6
CONTINUOUS
 10
291.896000
 20
44.747000
  0
VERTEX
  8
0
  6
CONTINUOUS
 10
291.896000
 20
29.897000
  0
VERTEX
  8
0
  6
CONTINUOUS
 10
281.396000
 20
29.897000
  0
SEQEND
  8
0
  0
TEXT
  8
0
  6
CONTINUOUS
 40
0.300000
 10
283.926000
 20
42.381000
  1
TIPUS   T106A
  7
ROMANC
  0
ARC
  8
1
  6
CONTINUOUS
 10
286.229000
 20
34.396000
 40
0.450000
 50
360.000000
 51
540.000000
  0
POLYLINE
  8
1
  6
CONTINUOUS
 66
     1
 70
     0
  0
VERTEX
  8
1
  6
CONTINUOUS
 10
285.779000
 20
34.396000
 42
0.013988
  0
VERTEX
  8
1
  6
CONTINUOUS
 10
285.782785
 20
34.259898
 42
0.014591
  0
VERTEX
  8
1
  6
CONTINUOUS
 10
285.794333
 20
34.124240
 42
0.014992
  0
VERTEX
  8
1
  6
CONTINUOUS
 10
285.812757
 20
33.996889
 42
0.017060
  0
VERTEX
  8
1
  6
CONTINUOUS
 10
285.839289
 20
33.871000
 42
0.018032
  0
VERTEX
  8
1
  6
CONTINUOUS
 10
285.870646
 20
33.760793
 42
0.022540
  0
VERTEX
  8
1
  6
CONTINUOUS
 10
285.910802
 20
33.653538
 42
0.024565
  0
VERTEX
  8
1
  6
CONTINUOUS
 10
285.952572
 20
33.567330
 42
0.033825
  0
VERTEX
  8
1
  6
CONTINUOUS
 10
286.004000
 20
33.486673
 42
0.038083
  0
VERTEX
  8
1
  6
CONTINUOUS
 10
286.053514
 20
33.429078
 42
0.055183
  0
VERTEX
  8
1
  6
CONTINUOUS
 10
286.112531
 20
33.381778
 42
0.062682
  0
VERTEX
  8
1
  6
CONTINUOUS
 10
286.168449
 20
33.355815
 42
0.076588
  0
VERTEX
  8
1
  6
CONTINUOUS
 10
286.229000
 20
33.346000
 42
0.076588
  0
VERTEX
  8
1
  6
CONTINUOUS
 10
286.289551
 20
33.355815
 42
0.062682
  0
VERTEX
  8
1
  6
CONTINUOUS
 10
286.345469
 20
33.381778
 42
0.055183
  0
VERTEX
  8
1
  6
CONTINUOUS
 10
286.404486
 20
33.429078
 42
0.038083
  0
VERTEX
  8
1
  6
CONTINUOUS
 10
286.454000
 20
33.486673
 42
0.033825
  0
VERTEX
  8
1
  6
CONTINUOUS
 10
286.505428
 20
33.567330
 42
0.024565
  0
VERTEX
  8
1
  6
CONTINUOUS
 10
286.547198
 20
33.653538
 42
0.022540
  0
VERTEX
  8
1
  6
CONTINUOUS
 10
286.587354
 20
33.760793
 42
0.018032
  0
VERTEX
  8
1
  6
CONTINUOUS
 10
286.618711
 20
33.871000
 42
0.017060
  0
VERTEX
  8
1
  6
CONTINUOUS
 10
286.645243
 20
33.996889
 42
0.014992
  0
VERTEX
  8
1
  6
CONTINUOUS
 10
286.663667
 20
34.124240
 42
0.014591
  0
VERTEX
  8
1
  6
CONTINUOUS
 10
286.675215
 20
34.259898
 42
0.013988
  0
VERTEX
  8
1
  6
CONTINUOUS
 10
286.679000
 20
34.396000
  0
SEQEND
  8
0
  0
TEXT
  8
0
  6
CONTINUOUS
 40
0.300000
 10
283.922000
 20
40.529000
  1
P = 37 dm
  7
ROMANC
  0
TEXT
  8
0
  6
CONTINUOUS
 40
0.300000
 10
283.945000
 20
41.099000
  1
S = 106 dm
  7
ROMANC
  0
TEXT
  8
1
  6
CONTINUOUS
 40
0.075000
 10
286.110000
 20
35.038000
  1
0.90
  7
ROMANC
  0
LINE
  8
1
  6
CONTINUOUS
 10
286.072000
 20
35.075000
 11
285.779000
 21
35.075000
  0
LINE
  8
1
  6
CONTINUOUS
 10
286.384000
 20
35.075000
 11
286.679000
 21
35.075000
  0
LINE
  8
1
  6
CONTINUOUS
 10
285.742000
 20
35.056000
 11
285.816000
 21
35.094000
  0
LINE
  8
1
  6
CONTINUOUS
 10
286.716000
 20
35.094000
 11
286.642000
 21
35.056000
  0
LINE
  8
1
  6
CONTINUOUS
 10
285.779000
 20
34.434000
 11
285.779000
 21
35.113000
  0
LINE
  8
1
  6
CONTINUOUS
 10
286.679000
 20
34.434000
 11
286.679000
 21
35.113000
  0
TEXT
  8
1
  6
CONTINUOUS
 40
0.075000
 10
286.980000
 20
33.986000
  1
1.50
 50
90.000000
  7
ROMANC
  0
LINE
  8
1
  6
CONTINUOUS
 10
286.943000
 20
33.948000
 11
286.943000
 21
33.346000
  0
LINE
  8
1
  6
CONTINUOUS
 10
286.943000
 20
34.243000
 11
286.943000
 21
34.846000
  0
LINE
  8
1
  6
CONTINUOUS
 10
286.962000
 20
33.308000
 11
286.924000
 21
33.384000
  0
LINE
  8
1
  6
CONTINUOUS
 10
286.924000
 20
34.884000
 11
286.962000
 21
34.808000
  0
LINE
  8
1
  6
CONTINUOUS
 10
286.267000
 20
33.346000
 11
286.981000
 21
33.346000
  0
LINE
  8
1
  6
CONTINUOUS
 10
286.267000
 20
34.846000
 11
286.981000
 21
34.846000
  0
ARC
  8
1
  6
CONTINUOUS
 10
286.229000
 20
34.396000
 40
0.460000
 50
360.000000
 51
540.000000
  0
ARC
  8
1
  6
CONTINUOUS
 10
286.229000
 20
34.396000
 40
0.470000
 50
360.000000
 51
540.000000
  0
POLYLINE
  8
1
  6
CONTINUOUS
 66
     1
 70
     0
  0
VERTEX
  8
1
  6
CONTINUOUS
 10
285.769000
 20
34.396000
 42
0.014164
  0
VERTEX
  8
1
  6
CONTINUOUS
 10
285.772870
 20
34.258596
 42
0.014772
  0
VERTEX
  8
1
  6
CONTINUOUS
 10
285.784674
 20
34.121652
 42
0.015174
  0
VERTEX
  8
1
  6
CONTINUOUS
 10
285.803510
 20
33.993070
 42
0.017254
  0
VERTEX
  8
1
  6
CONTINUOUS
 10
285.830628
 20
33.866000
 42
0.018230
  0
VERTEX
  8
1
  6
CONTINUOUS
 10
285.862695
 20
33.754710
 42
0.022745
  0
VERTEX
  8
1
  6
CONTINUOUS
 10
285.903731
 20
33.646467
 42
0.024772
  0
VERTEX
  8
1
  6
CONTINUOUS
 10
285.946461
 20
33.559386
 42
0.033979
  0
VERTEX
  8
1
  6
CONTINUOUS
 10
285.999000
 20
33.478013
 42
0.038201
  0
VERTEX
  8
1
  6
CONTINUOUS
 10
286.049678
 20
33.419813
 42
0.054967
  0
VERTEX
  8
1
  6
CONTINUOUS
 10
286.109943
 20
33.372119
 42
0.062243
  0
VERTEX
  8
1
  6
CONTINUOUS
 10
286.167152
 20
33.345889
 42
0.075637
  0
VERTEX
  8
1
  6
CONTINUOUS
 10
286.229000
 20
33.336000
 42
0.075637
  0
VERTEX
  8
1
  6
CONTINUOUS
 10
286.290848
 20
33.345889
 42
0.062243
  0
VERTEX
  8
1
  6
CONTINUOUS
 10
286.348057
 20
33.372119
 42
0.054967
  0
VERTEX
  8
1
  6
CONTINUOUS
 10
286.408322
 20
33.419813
 42
0.038201
  0
VERTEX
  8
1
  6
CONTINUOUS
 10
286.459000
 20
33.478013
 42
0.033979
  0
VERTEX
  8
1
  6
CONTINUOUS
 10
286.511539
 20
33.559386
 42
0.024772
  0
VERTEX
  8
1
  6
CONTINUOUS
 10
286.554269
 20
33.646467
 42
0.022745
  0
VERTEX
  8
1
  6
CONTINUOUS
 10
286.595305
 20
33.754710
 42
0.018230
  0
VERTEX
  8
1
  6
CONTINUOUS
 10
286.627372
 20
33.866000
 42
0.017254
  0
VERTEX
  8
1
  6
CONTINUOUS
 10
286.654490
 20
33.993070
 42
0.015174
  0
VERTEX
  8
1
  6
CONTINUOUS
 10
286.673326
 20
34.121652
 42
0.014772
  0
VERTEX
  8
1
  6
CONTINUOUS
 10
286.685130
 20
34.258596
 42
0.014164
  0
VERTEX
  8
1
  6
CONTINUOUS
 10
286.689000
 20
34.396000
  0
SEQEND
  8
0
  0
POLYLINE
  8
1
  6
CONTINUOUS
 66
     1
 70
     0
  0
VERTEX
  8
1
  6
CONTINUOUS
 10
285.759000
 20
34.396000
 42
0.014337
  0
VERTEX
  8
1
  6
CONTINUOUS
 10
285.762954
 20
34.257294
 42
0.014948
  0
VERTEX
  8
1
  6
CONTINUOUS
 10
285.775015
 20
34.119064
 42
0.015353
  0
VERTEX
  8
1
  6
CONTINUOUS
 10
285.794264
 20
33.989251
 42
0.017443
  0
VERTEX
  8
1
  6
CONTINUOUS
 10
285.821968
 20
33.861000
 42
0.018423
  0
VERTEX
  8
1
  6
CONTINUOUS
 10
285.854744
 20
33.748627
 42
0.022944
  0
VERTEX
  8
1
  6
CONTINUOUS
 10
285.896660
 20
33.639396
 42
0.024971
  0
VERTEX
  8
1
  6
CONTINUOUS
 10
285.940350
 20
33.551442
 42
0.034125
  0
VERTEX
  8
1
  6
CONTINUOUS
 10
285.994000
 20
33.469353
 42
0.038309
  0
VERTEX
  8
1
  6
CONTINUOUS
 10
286.045843
 20
33.410549
 42
0.054751
  0
VERTEX
  8
1
  6
CONTINUOUS
 10
286.107355
 20
33.362459
 42
0.061814
  0
VERTEX
  8
1
  6
CONTINUOUS
 10
286.165855
 20
33.335963
 42
0.074726
  0
VERTEX
  8
1
  6
CONTINUOUS
 10
286.229000
 20
33.326000
 42
0.074726
  0
VERTEX
  8
1
  6
CONTINUOUS
 10
286.292145
 20
33.335963
 42
0.061814
  0
VERTEX
  8
1
  6
CONTINUOUS
 10
286.350645
 20
33.362459
 42
0.054751
  0
VERTEX
  8
1
  6
CONTINUOUS
 10
286.412157
 20
33.410549
 42
0.038309
  0
VERTEX
  8
1
  6
CONTINUOUS
 10
286.464000
 20
33.469353
 42
0.034125
  0
VERTEX
  8
1
  6
CONTINUOUS
 10
286.517650
 20
33.551442
 42
0.024971
  0
VERTEX
  8
1
  6
CONTINUOUS
 10
286.561340
 20
33.639396
 42
0.022944
  0
VERTEX
  8
1
  6
CONTINUOUS
 10
286.603256
 20
33.748627
 42
0.018423
  0
VERTEX
  8
1
  6
CONTINUOUS
 10
286.636032
 20
33.861000
 42
0.017443
  0
VERTEX
  8
1
  6
CONTINUOUS
 10
286.663736
 20
33.989251
 42
0.015353
  0
VERTEX
  8
1
  6
CONTINUOUS
 10
286.682985
 20
34.119064
 42
0.014948
  0
VERTEX
  8
1
  6
CONTINUOUS
 10
286.695046
 20
34.257294
 42
0.014337
  0
VERTEX
  8
1
  6
CONTINUOUS
 10
286.699000
 20
34.396000
  0
SEQEND
  8
0
  0
ENDSEC
  0
EOF
