  0
SECTION
  2
HEADER
  9
$ACADVER
  1
AC1009
  9
$INSBASE
 10
0.0
 20
0.0
 30
0.0
  9
$EXTMIN
 10
281.396000
 20
29.897000
 30
-2147483.648000
  9
$EXTMAX
 10
291.896000
 20
44.747000
 30
0.000000
  9
$LIMMIN
 10
280.396000
 20
28.897000
  9
$LIMMAX
 10
292.896000
 20
43.747000
  9
$ORTHOMODE
 70
     0
  9
$REGENMODE
 70
     1
  9
$FILLMODE
 70
     1
  9
$QTEXTMODE
 70
     0
  9
$MIRRTEXT
 70
     1
  9
$DRAGMODE
 70
     2
  9
$LTSCALE
 40
1.0
  9
$OSMODE
 70
     0
  9
$ATTMODE
 70
     1
  9
$TEXTSIZE
 40
0.2
  9
$TRACEWID
 40
0.05
  9
$TEXTSTYLE
  7
STANDARD
  9
$CLAYER
  8
0
  9
$CELTYPE
  6
BYLAYER
  9
$CECOLOR
 62
   256
  9
$DIMSCALE
 40
1.0
  9
$DIMASZ
 40
0.18
  9
$DIMEXO
 40
0.0625
  9
$DIMDLI
 40
0.38
  9
$DIMRND
 40
0.0
  9
$DIMDLE
 40
0.0
  9
$DIMEXE
 40
0.18
  9
$DIMTP
 40
0.0
  9
$DIMTM
 40
0.0
  9
$DIMTXT
 40
0.18
  9
$DIMCEN
 40
0.09
  9
$DIMTSZ
 40
0.0
  9
$DIMTOL
 70
     0
  9
$DIMLIM
 70
     0
  9
$DIMTIH
 70
     1
  9
$DIMTOH
 70
     1
  9
$DIMSE1
 70
     0
  9
$DIMSE2
 70
     0
  9
$DIMTAD
 70
     0
  9
$DIMZIN
 70
     0
  9
$DIMBLK
  1

  9
$DIMASO
 70
     1
  9
$DIMSHO
 70
     1
  9
$DIMPOST
  1

  9
$DIMAPOST
  1

  9
$DIMALT
 70
     0
  9
$DIMALTD
 70
     2
  9
$DIMALTF
 40
25.4
  9
$DIMLFAC
 40
1.0
  9
$DIMTOFL
 70
     0
  9
$DIMTVP
 40
0.0
  9
$DIMTIX
 70
     0
  9
$DIMSOXD
 70
     0
  9
$DIMSAH
 70
     0
  9
$DIMBLK1
  1

  9
$DIMBLK2
  1

  9
$DIMSTYLE
  2
*UNNAMED
  9
$DIMCLRD
 70
     0
  9
$DIMCLRE
 70
     0
  9
$DIMCLRT
 70
     0
  9
$DIMTFAC
 40
1.0
  9
$DIMGAP
 40
0.09
  9
$LUNITS
 70
     2
  9
$LUPREC
 70
     4
  9
$AXISMODE
 70
     0
  9
$AXISUNIT
 10
0.0
 20
0.0
  9
$SKETCHINC
 40
0.1
  9
$FILLETRAD
 40
0.0
  9
$AUNITS
 70
     0
  9
$AUPREC
 70
     0
  9
$MENU
  1
acad
  9
$ELEVATION
 40
0.0
  9
$PELEVATION
 40
0.0
  9
$THICKNESS
 40
0.0
  9
$LIMCHECK
 70
     0
  9
$BLIPMODE
 70
     1
  9
$CHAMFERA
 40
0.0
  9
$CHAMFERB
 40
0.0
  9
$SKPOLY
 70
     0
  9
$TDCREATE
 40
2448315.373408102
  9
$TDUPDATE
 40
2448315.373408102
  9
$TDINDWG
 40
0.0000000000
  9
$TDUSRTIMER
 40
0.0000000000
  9
$USRTIMER
 70
     1
  9
$ANGBASE
 50
0.0
  9
$ANGDIR
 70
     0
  9
$PDMODE
 70
     0
  9
$PDSIZE
 40
0.0
  9
$PLINEWID
 40
0.0
  9
$COORDS
 70
     0
  9
$SPLFRAME
 70
     0
  9
$SPLINETYPE
 70
     6
  9
$SPLINESEGS
 70
     8
  9
$ATTDIA
 70
     0
  9
$ATTREQ
 70
     1
  9
$HANDLING
 70
     0
  9
$HANDSEED
  5
0
  9
$SURFTAB1
 70
     6
  9
$SURFTAB2
 70
     6
  9
$SURFTYPE
 70
     6
  9
$SURFU
 70
     6
  9
$SURFV
 70
     6
  9
$UCSNAME
  2

  9
$UCSORG
 10
0.0
 20
0.0
 30
0.0
  9
$UCSXDIR
 10
1.0
 20
0.0
 30
0.0
  9
$UCSYDIR
 10
0.0
 20
1.0
 30
0.0
  9
$PUCSNAME
  2

  9
$PUCSORG
 10
0.0
 20
0.0
 30
0.0
  9
$PUCSXDIR
 10
1.0
 20
0.0
 30
0.0
  9
$PUCSYDIR
 10
0.0
 20
1.0
 30
0.0
  9
$USERI1
 70
     0
  9
$USERI2
 70
     0
  9
$USERI3
 70
     0
  9
$USERI4
 70
     0
  9
$USERI5
 70
     0
  9
$USERR1
 40
0.0
  9
$USERR2
 40
0.0
  9
$USERR3
 40
0.0
  9
$USERR4
 40
0.0
  9
$USERR5
 40
0.0
  9
$WORLDVIEW
 70
     1
  9
$SHADEDGE
 70
     3
  9
$SHADEDIF
 70
    70
  9
$TILEMODE
 70
     1
  9
$MAXACTVP
 70
    16
  9
$PINSBASE
 10
0.0
 20
0.0
 30
0.0
  9
$PLIMCHECK
 70
     0
  9
$PEXTMIN
 10
1.000000E+20
 20
1.000000E+20
 30
1.000000E+20
  9
$PEXTMAX
 10
-1.000000E+20
 20
-1.000000E+20
 30
-1.000000E+20
  9
$PLIMMIN
 10
0.0
 20
0.0
  9
$PLIMMAX
 10
12.0
 20
9.0
  9
$UNITMODE
 70
     0
  9
$VISRETAIN
 70
     0
  0
ENDSEC
  0
SECTION
  2
TABLES
  0
TABLE
  2
LTYPE
 70
    1
  0
LTYPE
  2
CONTINUOUS
 70
    64
3
Solid line
 72
    65
 73
0
 40
0.000000
  0
ENDTAB
  0
TABLE
  2
LAYER
 70
    8
  0
LAYER
  2
0
 70
    64
 62
7
  6
CONTINUOUS
  0
LAYER
  2
1
 70
    64
 62
7
  6
CONTINUOUS
  0
LAYER
  2
7
 70
    64
 62
7
  6
CONTINUOUS
  0
LAYER
  2
8
 70
    64
 62
7
  6
CONTINUOUS
  0
LAYER
  2
9
 70
    64
 62
7
  6
CONTINUOUS
  0
LAYER
  2
22
 70
    64
 62
7
  6
CONTINUOUS
  0
LAYER
  2
25
 70
    64
 62
7
  6
CONTINUOUS
  0
LAYER
  2
0
 70
    64
 62
7
  6
CONTINUOUS
  0
ENDTAB
  0
TABLE
  2
STYLE
 70
    1
  0
STYLE
  2
ROMANC
70
     0
 40
0.0
 41
1.0
 50
0.0
 71
     0
 42
0.2
  3
ROMANC
  4

  0
ENDTAB
  0
ENDSEC
  0
SECTION
  2
BLOCKS
  0
ENDSEC
  0
SECTION
  2
ENTITIES
  0
TEXT
  8
0
  6
CONTINUOUS
 40
0.100000
 10
286.909000
 20
41.324000
  1
2
  7
ROMANC
  0
TEXT
  8
0
  6
CONTINUOUS
 40
0.300000
 10
283.926000
 20
41.768000
  1
ESCALA  1:50
  7
ROMANC
  0
POLYLINE
  8
0
  6
CONTINUOUS
 66
     1
 70
     1
  0
VERTEX
  8
0
  6
CONTINUOUS
 10
281.396000
 20
44.747000
  0
VERTEX
  8
0
  6
CONTINUOUS
 10
291.896000
 20
44.747000
  0
VERTEX
  8
0
  6
CONTINUOUS
 10
291.896000
 20
29.897000
  0
VERTEX
  8
0
  6
CONTINUOUS
 10
281.396000
 20
29.897000
  0
SEQEND
  8
0
  0
TEXT
  8
1
  6
CONTINUOUS
 40
0.075000
 10
285.228000
 20
34.360000
  1
0.20
  7
ROMANC
  0
LINE
  8
1
  6
CONTINUOUS
 10
285.578000
 20
34.397000
 11
285.652000
 21
34.397000
  0
LINE
  8
1
  6
CONTINUOUS
 10
286.002000
 20
34.397000
 11
285.852000
 21
34.397000
  0
LINE
  8
1
  6
CONTINUOUS
 10
285.690000
 20
34.416000
 11
285.614000
 21
34.378000
  0
LINE
  8
1
  6
CONTINUOUS
 10
285.814000
 20
34.378000
 11
285.890000
 21
34.416000
  0
LINE
  8
1
  6
CONTINUOUS
 10
285.652000
 20
34.584000
 11
285.652000
 21
34.359000
  0
LINE
  8
1
  6
CONTINUOUS
 10
285.852000
 20
34.584000
 11
285.852000
 21
34.359000
  0
TEXT
  8
1
  6
CONTINUOUS
 40
0.075000
 10
285.933000
 20
34.242000
  1
0.40
  7
ROMANC
  0
LINE
  8
1
  6
CONTINUOUS
 10
285.702000
 20
34.279000
 11
285.852000
 21
34.279000
  0
LINE
  8
1
  6
CONTINUOUS
 10
286.402000
 20
34.279000
 11
286.252000
 21
34.279000
  0
LINE
  8
1
  6
CONTINUOUS
 10
285.890000
 20
34.298000
 11
285.814000
 21
34.260000
  0
LINE
  8
1
  6
CONTINUOUS
 10
286.214000
 20
34.260000
 11
286.290000
 21
34.298000
  0
LINE
  8
1
  6
CONTINUOUS
 10
285.852000
 20
34.584000
 11
285.852000
 21
34.241000
  0
LINE
  8
1
  6
CONTINUOUS
 10
286.252000
 20
34.584000
 11
286.252000
 21
34.241000
  0
TEXT
  8
1
  6
CONTINUOUS
 40
0.075000
 10
286.432000
 20
34.818000
  1
0.15
 50
90.000000
  7
ROMANC
  0
LINE
  8
1
  6
CONTINUOUS
 10
286.395000
 20
34.322000
 11
286.395000
 21
34.472000
  0
LINE
  8
1
  6
CONTINUOUS
 10
286.395000
 20
34.780000
 11
286.395000
 21
34.622000
  0
LINE
  8
1
  6
CONTINUOUS
 10
286.376000
 20
34.510000
 11
286.414000
 21
34.434000
  0
LINE
  8
1
  6
CONTINUOUS
 10
286.414000
 20
34.584000
 11
286.376000
 21
34.660000
  0
LINE
  8
1
  6
CONTINUOUS
 10
286.090000
 20
34.472000
 11
286.433000
 21
34.472000
  0
LINE
  8
1
  6
CONTINUOUS
 10
286.290000
 20
34.622000
 11
286.433000
 21
34.622000
  0
TEXT
  8
1
  6
CONTINUOUS
 40
0.075000
 10
286.622000
 20
35.037000
  1
1.05
 50
90.000000
  7
ROMANC
  0
LINE
  8
1
  6
CONTINUOUS
 10
286.584000
 20
34.999000
 11
286.584000
 21
34.622000
  0
LINE
  8
1
  6
CONTINUOUS
 10
286.584000
 20
35.294000
 11
286.584000
 21
35.672000
  0
LINE
  8
1
  6
CONTINUOUS
 10
286.603000
 20
34.584000
 11
286.565000
 21
34.660000
  0
LINE
  8
1
  6
CONTINUOUS
 10
286.565000
 20
35.710000
 11
286.603000
 21
35.634000
  0
LINE
  8
1
  6
CONTINUOUS
 10
286.290000
 20
34.622000
 11
286.622000
 21
34.622000
  0
LINE
  8
1
  6
CONTINUOUS
 10
286.390000
 20
35.672000
 11
286.622000
 21
35.672000
  0
TEXT
  8
1
  6
CONTINUOUS
 40
0.075000
 10
286.622000
 20
35.750000
  1
0.40
 50
90.000000
  7
ROMANC
  0
LINE
  8
1
  6
CONTINUOUS
 10
286.584000
 20
35.522000
 11
286.584000
 21
35.672000
  0
LINE
  8
1
  6
CONTINUOUS
 10
286.584000
 20
36.222000
 11
286.584000
 21
36.072000
  0
LINE
  8
1
  6
CONTINUOUS
 10
286.565000
 20
35.710000
 11
286.603000
 21
35.634000
  0
LINE
  8
1
  6
CONTINUOUS
 10
286.603000
 20
36.034000
 11
286.565000
 21
36.110000
  0
LINE
  8
1
  6
CONTINUOUS
 10
285.990000
 20
36.072000
 11
286.622000
 21
36.072000
  0
TEXT
  8
1
  6
CONTINUOUS
 40
0.075000
 10
285.833000
 20
36.188000
  1
0.80
  7
ROMANC
  0
LINE
  8
1
  6
CONTINUOUS
 10
285.795000
 20
36.226000
 11
285.552000
 21
36.226000
  0
LINE
  8
1
  6
CONTINUOUS
 10
286.107000
 20
36.226000
 11
286.352000
 21
36.226000
  0
LINE
  8
1
  6
CONTINUOUS
 10
285.514000
 20
36.207000
 11
285.590000
 21
36.245000
  0
LINE
  8
1
  6
CONTINUOUS
 10
286.390000
 20
36.245000
 11
286.314000
 21
36.207000
  0
LINE
  8
1
  6
CONTINUOUS
 10
285.552000
 20
35.710000
 11
285.552000
 21
36.264000
  0
LINE
  8
1
  6
CONTINUOUS
 10
286.352000
 20
35.710000
 11
286.352000
 21
36.264000
  0
TEXT
  8
1
  6
CONTINUOUS
 40
0.075000
 10
285.833000
 20
34.098000
  1
0.60
  7
ROMANC
  0
LINE
  8
1
  6
CONTINUOUS
 10
285.502000
 20
34.135000
 11
285.652000
 21
34.135000
  0
LINE
  8
1
  6
CONTINUOUS
 10
286.402000
 20
34.135000
 11
286.252000
 21
34.135000
  0
LINE
  8
1
  6
CONTINUOUS
 10
285.690000
 20
34.154000
 11
285.614000
 21
34.116000
  0
LINE
  8
1
  6
CONTINUOUS
 10
286.214000
 20
34.116000
 11
286.290000
 21
34.154000
  0
LINE
  8
1
  6
CONTINUOUS
 10
285.652000
 20
34.584000
 11
285.652000
 21
34.097000
  0
LINE
  8
1
  6
CONTINUOUS
 10
286.252000
 20
34.584000
 11
286.252000
 21
34.097000
  0
TEXT
  8
1
  6
CONTINUOUS
 40
0.075000
 10
286.720000
 20
35.162000
  1
1.60
 50
90.000000
  7
ROMANC
  0
LINE
  8
1
  6
CONTINUOUS
 10
286.682000
 20
35.124000
 11
286.682000
 21
34.472000
  0
LINE
  8
1
  6
CONTINUOUS
 10
286.682000
 20
35.419000
 11
286.682000
 21
36.072000
  0
LINE
  8
1
  6
CONTINUOUS
 10
286.701000
 20
34.434000
 11
286.663000
 21
34.510000
  0
LINE
  8
1
  6
CONTINUOUS
 10
286.663000
 20
36.110000
 11
286.701000
 21
36.034000
  0
LINE
  8
1
  6
CONTINUOUS
 10
286.090000
 20
34.472000
 11
286.720000
 21
34.472000
  0
LINE
  8
1
  6
CONTINUOUS
 10
286.028000
 20
36.072000
 11
286.720000
 21
36.072000
  0
LINE
  8
1
  6
CONTINUOUS
 10
286.362000
 20
35.678000
 11
286.261000
 21
34.622000
  0
LINE
  8
1
  6
CONTINUOUS
 10
286.372000
 20
35.677000
 11
286.271000
 21
34.622000
  0
LINE
  8
1
  6
CONTINUOUS
 10
285.643000
 20
34.612000
 11
285.542000
 21
35.670000
  0
LINE
  8
1
  6
CONTINUOUS
 10
285.634000
 20
34.602000
 11
285.532000
 21
35.669000
  0
LINE
  8
1
  6
CONTINUOUS
 10
285.891000
 20
34.612000
 11
285.643000
 21
34.612000
  0
LINE
  8
1
  6
CONTINUOUS
 10
285.882000
 20
34.602000
 11
285.634000
 21
34.602000
  0
POLYLINE
  8
1
  6
CONTINUOUS
 66
     1
 70
     0
  0
VERTEX
  8
1
  6
CONTINUOUS
 10
285.891362
 20
34.612000
 42
0.040342
  0
VERTEX
  8
1
  6
CONTINUOUS
 10
285.894817
 20
34.589727
 42
0.039259
  0
VERTEX
  8
1
  6
CONTINUOUS
 10
285.901744
 20
34.568272
 42
0.038672
  0
VERTEX
  8
1
  6
CONTINUOUS
 10
285.912230
 20
34.547604
 42
0.036648
  0
VERTEX
  8
1
  6
CONTINUOUS
 10
285.925692
 20
34.528726
 42
0.035897
  0
VERTEX
  8
1
  6
CONTINUOUS
 10
285.942392
 20
34.511348
 42
0.033789
  0
VERTEX
  8
1
  6
CONTINUOUS
 10
285.961342
 20
34.496441
 42
0.033140
  0
VERTEX
  8
1
  6
CONTINUOUS
 10
285.982901
 20
34.483748
 42
0.031555
  0
VERTEX
  8
1
  6
CONTINUOUS
 10
286.005920
 20
34.473930
 42
0.031148
  0
VERTEX
  8
1
  6
CONTINUOUS
 10
286.030598
 20
34.466901
 42
0.030362
  0
VERTEX
  8
1
  6
CONTINUOUS
 10
286.055954
 20
34.462944
 42
0.030246
  0
VERTEX
  8
1
  6
CONTINUOUS
 10
286.081795
 20
34.462082
 42
0.030346
  0
VERTEX
  8
1
  6
CONTINUOUS
 10
286.107551
 20
34.464340
 42
0.030529
  0
VERTEX
  8
1
  6
CONTINUOUS
 10
286.132548
 20
34.469653
 42
0.031505
  0
VERTEX
  8
1
  6
CONTINUOUS
 10
286.156694
 20
34.478008
 42
0.031972
  0
VERTEX
  8
1
  6
CONTINUOUS
 10
286.178944
 20
34.489044
 42
0.033708
  0
VERTEX
  8
1
  6
CONTINUOUS
 10
286.199557
 20
34.502885
 42
0.034397
  0
VERTEX
  8
1
  6
CONTINUOUS
 10
286.217392
 20
34.518786
 42
0.036551
  0
VERTEX
  8
1
  6
CONTINUOUS
 10
286.232804
 20
34.537034
 42
0.037293
  0
VERTEX
  8
1
  6
CONTINUOUS
 10
286.244882
 20
34.556617
 42
0.039183
  0
VERTEX
  8
1
  6
CONTINUOUS
 10
286.253848
 20
34.577796
 42
0.039688
  0
VERTEX
  8
1
  6
CONTINUOUS
 10
286.259214
 20
34.599612
 42
0.040458
  0
VERTEX
  8
1
  6
CONTINUOUS
 10
286.261049
 20
34.622000
  0
SEQEND
  8
0
  0
POLYLINE
  8
1
  6
CONTINUOUS
 66
     1
 70
     0
  0
VERTEX
  8
1
  6
CONTINUOUS
 10
285.882207
 20
34.602000
 42
0.039148
  0
VERTEX
  8
1
  6
CONTINUOUS
 10
285.887225
 20
34.578948
 42
0.037954
  0
VERTEX
  8
1
  6
CONTINUOUS
 10
285.895710
 20
34.556928
 42
0.037376
  0
VERTEX
  8
1
  6
CONTINUOUS
 10
285.907765
 20
34.535857
 42
0.035472
  0
VERTEX
  8
1
  6
CONTINUOUS
 10
285.922745
 20
34.516742
 42
0.034789
  0
VERTEX
  8
1
  6
CONTINUOUS
 10
285.940921
 20
34.499302
 42
0.032904
  0
VERTEX
  8
1
  6
CONTINUOUS
 10
285.961283
 20
34.484459
 42
0.032334
  0
VERTEX
  8
1
  6
CONTINUOUS
 10
285.984160
 20
34.471993
 42
0.030962
  0
VERTEX
  8
1
  6
CONTINUOUS
 10
286.008429
 20
34.462503
 42
0.030618
  0
VERTEX
  8
1
  6
CONTINUOUS
 10
286.034234
 20
34.455934
 42
0.029985
  0
VERTEX
  8
1
  6
CONTINUOUS
 10
286.060645
 20
34.452523
 42
0.029906
  0
VERTEX
  8
1
  6
CONTINUOUS
 10
286.087409
 20
34.452298
 42
0.030081
  0
VERTEX
  8
1
  6
CONTINUOUS
 10
286.114009
 20
34.455268
 42
0.030275
  0
VERTEX
  8
1
  6
CONTINUOUS
 10
286.139732
 20
34.461350
 42
0.031241
  0
VERTEX
  8
1
  6
CONTINUOUS
 10
286.164514
 20
34.470532
 42
0.031690
  0
VERTEX
  8
1
  6
CONTINUOUS
 10
286.187309
 20
34.482430
 42
0.033323
  0
VERTEX
  8
1
  6
CONTINUOUS
 10
286.208369
 20
34.497169
 42
0.033961
  0
VERTEX
  8
1
  6
CONTINUOUS
 10
286.226583
 20
34.513995
 42
0.035932
  0
VERTEX
  8
1
  6
CONTINUOUS
 10
286.242281
 20
34.533178
 42
0.036603
  0
VERTEX
  8
1
  6
CONTINUOUS
 10
286.254587
 20
34.553721
 42
0.038296
  0
VERTEX
  8
1
  6
CONTINUOUS
 10
286.263703
 20
34.575857
 42
0.038744
  0
VERTEX
  8
1
  6
CONTINUOUS
 10
286.269163
 20
34.598645
 42
0.039426
  0
VERTEX
  8
1
  6
CONTINUOUS
 10
286.271027
 20
34.622000
  0
SEQEND
  8
0
  0
TEXT
  8
0
  6
CONTINUOUS
 40
0.300000
 10
283.926000
 20
42.381000
  1
TIPUS   T102
  7
ROMANC
  0
ARC
  8
1
  6
CONTINUOUS
 10
285.952000
 20
35.672000
 40
0.410000
 50
0.000000
 51
180.000000
  0
ARC
  8
1
  6
CONTINUOUS
 10
285.952000
 20
35.672000
 40
0.420000
 50
0.000000
 51
180.000000
  0
LINE
  8
1
  6
CONTINUOUS
 10
285.552000
 20
35.672000
 11
285.652000
 21
34.622000
  0
LINE
  8
1
  6
CONTINUOUS
 10
285.652000
 20
34.622000
 11
285.901000
 21
34.622000
  0
POLYLINE
  8
1
  6
CONTINUOUS
 66
     1
 70
     0
  0
VERTEX
  8
1
  6
CONTINUOUS
 10
285.901000
 20
34.622000
 42
0.038184
  0
VERTEX
  8
1
  6
CONTINUOUS
 10
285.902517
 20
34.602365
 42
0.037500
  0
VERTEX
  8
1
  6
CONTINUOUS
 10
285.906964
 20
34.583177
 42
0.037050
  0
VERTEX
  8
1
  6
CONTINUOUS
 10
285.914399
 20
34.564460
 42
0.035340
  0
VERTEX
  8
1
  6
CONTINUOUS
 10
285.924449
 20
34.547000
 42
0.034660
  0
VERTEX
  8
1
  6
CONTINUOUS
 10
285.937311
 20
34.530536
 42
0.032640
  0
VERTEX
  8
1
  6
CONTINUOUS
 10
285.952263
 20
34.515934
 42
0.031979
  0
VERTEX
  8
1
  6
CONTINUOUS
 10
285.969645
 20
34.502891
 42
0.030250
  0
VERTEX
  8
1
  6
CONTINUOUS
 10
285.988512
 20
34.492096
 42
0.029761
  0
VERTEX
  8
1
  6
CONTINUOUS
 10
286.009180
 20
34.483374
 42
0.028645
  0
VERTEX
  8
1
  6
CONTINUOUS
 10
286.030725
 20
34.477111
 42
0.028391
  0
VERTEX
  8
1
  6
CONTINUOUS
 10
286.053230
 20
34.473280
 42
0.028010
  0
VERTEX
  8
1
  6
CONTINUOUS
 10
286.076024
 20
34.472000
 42
0.028010
  0
VERTEX
  8
1
  6
CONTINUOUS
 10
286.098819
 20
34.473280
 42
0.028391
  0
VERTEX
  8
1
  6
CONTINUOUS
 10
286.121324
 20
34.477111
 42
0.028645
  0
VERTEX
  8
1
  6
CONTINUOUS
 10
286.142869
 20
34.483374
 42
0.029761
  0
VERTEX
  8
1
  6
CONTINUOUS
 10
286.163537
 20
34.492096
 42
0.030250
  0
VERTEX
  8
1
  6
CONTINUOUS
 10
286.182404
 20
34.502891
 42
0.031979
  0
VERTEX
  8
1
  6
CONTINUOUS
 10
286.199785
 20
34.515934
 42
0.032640
  0
VERTEX
  8
1
  6
CONTINUOUS
 10
286.214738
 20
34.530536
 42
0.034660
  0
VERTEX
  8
1
  6
CONTINUOUS
 10
286.227600
 20
34.547000
 42
0.035340
  0
VERTEX
  8
1
  6
CONTINUOUS
 10
286.237650
 20
34.564460
 42
0.037050
  0
VERTEX
  8
1
  6
CONTINUOUS
 10
286.245085
 20
34.583177
 42
0.037500
  0
VERTEX
  8
1
  6
CONTINUOUS
 10
286.249532
 20
34.602365
 42
0.038184
  0
VERTEX
  8
1
  6
CONTINUOUS
 10
286.251049
 20
34.622000
  0
SEQEND
  8
0
  0
LINE
  8
1
  6
CONTINUOUS
 10
286.252000
 20
34.622000
 11
286.352000
 21
35.672000
  0
ARC
  8
1
  6
CONTINUOUS
 10
285.952000
 20
35.672000
 40
0.400000
 50
360.000000
 51
540.000000
  0
TEXT
  8
0
  6
CONTINUOUS
 40
0.300000
 10
283.922000
 20
40.529000
  1
P = 41 dm
  7
ROMANC
  0
TEXT
  8
0
  6
CONTINUOUS
 40
0.300000
 10
283.945000
 20
41.099000
  1
S = 102 dm
  7
ROMANC
  0
ENDSEC
  0
EOF
