  0
SECTION
  2
HEADER
  9
$ACADVER
  1
AC1009
  9
$INSBASE
 10
128.807222
 20
11.631576
 30
0.0
  9
$EXTMIN
 10
-3.35
 20
-34.354564
 30
0.0
  9
$EXTMAX
 10
478.171683
 20
96.450756
 30
0.0
  9
$LIMMIN
 10
0.0
 20
0.0
  9
$LIMMAX
 10
410.0
 20
287.0
  9
$ORTHOMODE
 70
     0
  9
$REGENMODE
 70
     1
  9
$FILLMODE
 70
     1
  9
$QTEXTMODE
 70
     0
  9
$MIRRTEXT
 70
     1
  9
$DRAGMODE
 70
     2
  9
$LTSCALE
 40
25.0
  9
$OSMODE
 70
    32
  9
$ATTMODE
 70
     1
  9
$TEXTSIZE
 40
0.1
  9
$TRACEWID
 40
1.0
  9
$TEXTSTYLE
  7
ROMANC
  9
$CLAYER
  8
0
  9
$CELTYPE
  6
BYLAYER
  9
$CECOLOR
 62
   256
  9
$DIMSCALE
 40
0.0
  9
$DIMASZ
 40
0.0
  9
$DIMEXO
 40
0.1
  9
$DIMDLI
 40
7.0
  9
$DIMRND
 40
0.0
  9
$DIMDLE
 40
0.0
  9
$DIMEXE
 40
1.8
  9
$DIMTP
 40
0.0
  9
$DIMTM
 40
0.0
  9
$DIMTXT
 40
0.03
  9
$DIMCEN
 40
1.5
  9
$DIMTSZ
 40
1.0
  9
$DIMTOL
 70
     0
  9
$DIMLIM
 70
     0
  9
$DIMTIH
 70
     0
  9
$DIMTOH
 70
     0
  9
$DIMSE1
 70
     0
  9
$DIMSE2
 70
     0
  9
$DIMTAD
 70
     0
  9
$DIMZIN
 70
     0
  9
$DIMBLK
  1

  9
$DIMASO
 70
     1
  9
$DIMSHO
 70
     0
  9
$DIMPOST
  1

  9
$DIMAPOST
  1

  9
$DIMALT
 70
     0
  9
$DIMALTD
 70
     2
  9
$DIMALTF
 40
25.4
  9
$DIMLFAC
 40
1.0
  9
$DIMTOFL
 70
     1
  9
$DIMTVP
 40
0.0
  9
$DIMTIX
 70
     1
  9
$DIMSOXD
 70
     0
  9
$DIMSAH
 70
     0
  9
$DIMBLK1
  1

  9
$DIMBLK2
  1

  9
$DIMSTYLE
  2
*UNNAMED
  9
$DIMCLRD
 70
     0
  9
$DIMCLRE
 70
     0
  9
$DIMCLRT
 70
     0
  9
$DIMTFAC
 40
116.666667
  9
$DIMGAP
 40
0.09
  9
$LUNITS
 70
     2
  9
$LUPREC
 70
     2
  9
$SKETCHINC
 40
1.0
  9
$FILLETRAD
 40
0.0
  9
$AUNITS
 70
     0
  9
$AUPREC
 70
     0
  9
$MENU
  1
acad
  9
$ELEVATION
 40
0.0
  9
$PELEVATION
 40
0.0
  9
$THICKNESS
 40
0.0
  9
$LIMCHECK
 70
     0
  9
$BLIPMODE
 70
     0
  9
$CHAMFERA
 40
0.0
  9
$CHAMFERB
 40
0.0
  9
$SKPOLY
 70
     0
  9
$TDCREATE
 40
2449967.572486921
  9
$TDUPDATE
 40
2450207.474536458
  9
$TDINDWG
 40
0.0001862269
  9
$TDUSRTIMER
 40
0.0001862269
  9
$USRTIMER
 70
     1
  9
$ANGBASE
 50
0.0
  9
$ANGDIR
 70
     0
  9
$PDMODE
 70
     0
  9
$PDSIZE
 40
0.0
  9
$PLINEWID
 40
0.0
  9
$COORDS
 70
     0
  9
$SPLFRAME
 70
     0
  9
$SPLINETYPE
 70
     6
  9
$SPLINESEGS
 70
     8
  9
$ATTDIA
 70
     0
  9
$ATTREQ
 70
     1
  9
$HANDLING
 70
     0
  9
$HANDSEED
  5
0
  9
$SURFTAB1
 70
     6
  9
$SURFTAB2
 70
     6
  9
$SURFTYPE
 70
     6
  9
$SURFU
 70
     6
  9
$SURFV
 70
     6
  9
$UCSNAME
  2

  9
$UCSORG
 10
0.0
 20
0.0
 30
0.0
  9
$UCSXDIR
 10
1.0
 20
0.0
 30
0.0
  9
$UCSYDIR
 10
0.0
 20
1.0
 30
0.0
  9
$PUCSNAME
  2

  9
$PUCSORG
 10
0.0
 20
0.0
 30
0.0
  9
$PUCSXDIR
 10
1.0
 20
0.0
 30
0.0
  9
$PUCSYDIR
 10
0.0
 20
1.0
 30
0.0
  9
$USERI1
 70
     0
  9
$USERI2
 70
     0
  9
$USERI3
 70
     0
  9
$USERI4
 70
     0
  9
$USERI5
 70
     0
  9
$USERR1
 40
0.0
  9
$USERR2
 40
0.0
  9
$USERR3
 40
0.0
  9
$USERR4
 40
0.0
  9
$USERR5
 40
0.0
  9
$WORLDVIEW
 70
     1
  9
$SHADEDGE
 70
     3
  9
$SHADEDIF
 70
    70
  9
$TILEMODE
 70
     1
  9
$MAXACTVP
 70
    16
  9
$PINSBASE
 10
0.0
 20
0.0
 30
0.0
  9
$PLIMCHECK
 70
     0
  9
$PEXTMIN
 10
1.000000E+20
 20
1.000000E+20
 30
1.000000E+20
  9
$PEXTMAX
 10
-1.000000E+20
 20
-1.000000E+20
 30
-1.000000E+20
  9
$PLIMMIN
 10
0.0
 20
0.0
  9
$PLIMMAX
 10
12.0
 20
9.0
  9
$UNITMODE
 70
     0
  9
$VISRETAIN
 70
     0
  9
$PLINEGEN
 70
     0
  9
$PSLTSCALE
 70
     0
  9
$TREEDEPTH
 70
  3020
  9
$DWGCODEPAGE
  3
iso8859-1
  0
ENDSEC
  0
SECTION
  2
TABLES
  0
TABLE
  2
VPORT
 70
     1
  0
VPORT
  2
*ACTIVE
 70
     0
 10
0.0
 20
0.0
 11
1.0
 21
1.0
 12
130.243185
 22
19.625295
 13
0.0
 23
0.0
 14
1.0
 24
1.0
 15
10.0
 25
10.0
 16
0.0
 26
0.0
 36
1.0
 17
0.0
 27
0.0
 37
0.0
 40
17.589417
 41
1.65
 42
50.0
 43
0.0
 44
0.0
 50
0.0
 51
0.0
 71
     0
 72
   100
 73
     1
 74
     0
 75
     0
 76
     0
 77
     0
 78
     1
  0
ENDTAB
  0
TABLE
  2
LTYPE
 70
     1
  0
LTYPE
  2
CONTINUOUS
 70
    64
  3
Solid line
 72
    65
 73
     0
 40
0.0
  0
ENDTAB
  0
TABLE
  2
LAYER
 70
     1
  0
LAYER
  2
0
 70
    64
 62
     7
  6
CONTINUOUS
  0
ENDTAB
  0
TABLE
  2
STYLE
 70
     2
  0
STYLE
  2
STANDARD
 70
     0
 40
0.0
 41
1.0
 50
0.0
 71
     0
 42
0.1
  3
txt
  4

  0
STYLE
  2
ROMANC
 70
    64
 40
0.0
 41
1.0
 50
0.0
 71
     0
 42
0.1
  3
romanc
  4

  0
ENDTAB
  0
TABLE
  2
VIEW
 70
     0
  0
ENDTAB
  0
TABLE
  2
UCS
 70
     0
  0
ENDTAB
  0
TABLE
  2
APPID
 70
     1
  0
APPID
  2
ACAD
 70
    64
  0
ENDTAB
  0
TABLE
  2
DIMSTYLE
 70
     0
  0
ENDTAB
  0
ENDSEC
  0
SECTION
  2
BLOCKS
  0
ENDSEC
  0
SECTION
  2
ENTITIES
  0
LINE
  8
0
 10
128.807222
 20
26.481576
 30
0.0
 11
128.807222
 21
11.631576
 31
0.0
  0
LINE
  8
0
 10
139.307222
 20
11.631576
 30
0.0
 11
139.307222
 21
26.481576
 31
0.0
  0
LINE
  8
0
 10
128.807222
 20
11.631576
 30
0.0
 11
139.307222
 21
11.631576
 31
0.0
  0
LINE
  8
0
 10
133.658274
 20
15.559112
 30
0.0
 11
134.548013
 21
15.559112
 31
0.0
  0
LINE
  8
0
 10
133.283274
 20
15.194372
 30
0.0
 11
134.033274
 21
15.194372
 31
0.0
  0
TEXT
  8
0
 10
131.337195
 20
23.591721
 30
0.0
 40
0.3
  1
ESCALA  1:50
  7
ROMANC
  0
TEXT
  8
0
 10
131.337195
 20
24.077435
 30
0.0
 40
0.3
  1
TIPUS   NT99A
  7
ROMANC
  0
TEXT
  8
0
 10
131.350289
 20
22.993131
 30
0.0
 40
0.3
  1
S =  99  dm
  7
ROMANC
  0
TEXT
  8
0
 10
131.347461
 20
22.319633
 30
0.0
 40
0.3
  1
P = 40.1 dm
  7
ROMANC
  0
LINE
  8
0
 10
133.250721
 20
15.16478
 30
0.0
 11
133.312081
 21
15.220559
 31
0.0
  0
TEXT
  8
0
 10
133.507995
 20
14.987621
 30
0.0
 40
0.1
  1
0.75
  7
ROMANC
  0
LINE
  8
0
 10
133.283274
 20
15.709112
 30
0.0
 11
133.283274
 21
15.194372
 31
0.0
  0
LINE
  8
0
 10
134.000721
 20
15.16478
 30
0.0
 11
134.062081
 21
15.220559
 31
0.0
  0
LINE
  8
0
 10
134.51546
 20
15.52952
 30
0.0
 11
134.576821
 21
15.585299
 31
0.0
  0
LINE
  8
0
 10
134.51546
 20
15.67952
 30
0.0
 11
134.576821
 21
15.735299
 31
0.0
  0
LINE
  8
0
 10
134.51546
 20
16.87952
 30
0.0
 11
134.576821
 21
16.935299
 31
0.0
  0
TEXT
  8
0
 10
134.732279
 20
15.612022
 30
0.0
 40
0.1
  1
0.15
  7
ROMANC
  0
TEXT
  8
0
 10
134.706948
 20
16.312362
 30
0.0
 40
0.1
  1
1.20
  7
ROMANC
  0
LINE
  8
0
 10
134.033274
 20
15.709112
 30
0.0
 11
134.033274
 21
15.194372
 31
0.0
  0
LINE
  8
0
 10
134.033274
 20
16.909112
 30
0.0
 11
134.548013
 21
16.909112
 31
0.0
  0
LINE
  8
0
 10
134.033274
 20
15.709112
 30
0.0
 11
134.548013
 21
15.709112
 31
0.0
  0
LINE
  8
0
 10
134.548013
 20
15.559112
 30
0.0
 11
134.548013
 21
16.909112
 31
0.0
  0
TEXT
  8
0
 10
134.85812
 20
23.299047
 30
0.0
 40
0.1
  1
2
  7
ROMANC
  0
LINE
  8
0
 10
139.307222
 20
26.481576
 30
0.0
 11
128.807222
 21
26.481576
 31
0.0
  0
LINE
  8
0
 10
134.033274
 20
15.709112
 30
0.0
 11
134.033274
 21
16.909112
 31
0.0
  0
LINE
  8
0
 10
134.033274
 20
16.909112
 30
0.0
 11
133.283274
 21
16.909112
 31
0.0
  0
LINE
  8
0
 10
133.283274
 20
16.909112
 30
0.0
 11
133.283274
 21
15.709112
 31
0.0
  0
ARC
  8
0
 10
133.350366
 20
15.709112
 30
0.0
 40
0.067092
 50
180.0
 51
226.000099
  0
ARC
  8
0
 10
133.495759
 20
15.859671
 30
0.0
 40
0.276394
 50
226.000099
 51
248.198591
  0
ARC
  8
0
 10
133.593613
 20
16.104306
 30
0.0
 40
0.539874
 50
248.198591
 51
260.592388
  0
ARC
  8
0
 10
133.658274
 20
16.494569
 30
0.0
 40
0.935458
 50
260.592388
 51
270.0
  0
ARC
  8
0
 10
133.658274
 20
16.494569
 30
0.0
 40
0.935458
 50
270.0
 51
279.407612
  0
ARC
  8
0
 10
133.722935
 20
16.104306
 30
0.0
 40
0.539874
 50
279.407612
 51
291.801409
  0
ARC
  8
0
 10
133.820789
 20
15.859671
 30
0.0
 40
0.276394
 50
291.801409
 51
313.999901
  0
ARC
  8
0
 10
133.966182
 20
15.709112
 30
0.0
 40
0.067092
 50
313.999901
 51
0.0
  0
LINE
  8
0
 10
134.043274
 20
15.709112
 30
0.0
 11
134.043274
 21
16.919112
 31
0.0
  0
LINE
  8
0
 10
134.043274
 20
16.919112
 30
0.0
 11
133.273274
 21
16.919112
 31
0.0
  0
LINE
  8
0
 10
133.273274
 20
16.919112
 30
0.0
 11
133.273274
 21
15.709112
 31
0.0
  0
ARC
  8
0
 10
133.350366
 20
15.709112
 30
0.0
 40
0.077092
 50
180.0
 51
226.000099
  0
ARC
  8
0
 10
133.495759
 20
15.859671
 30
0.0
 40
0.286394
 50
226.000099
 51
248.198591
  0
ARC
  8
0
 10
133.593613
 20
16.104306
 30
0.0
 40
0.549874
 50
248.198591
 51
260.592388
  0
ARC
  8
0
 10
133.658274
 20
16.494569
 30
0.0
 40
0.945458
 50
260.592388
 51
270.0
  0
ARC
  8
0
 10
133.658274
 20
16.494569
 30
0.0
 40
0.945458
 50
270.0
 51
279.407612
  0
ARC
  8
0
 10
133.722935
 20
16.104306
 30
0.0
 40
0.549874
 50
279.407612
 51
291.801409
  0
ARC
  8
0
 10
133.820789
 20
15.859671
 30
0.0
 40
0.286394
 50
291.801409
 51
313.999901
  0
ARC
  8
0
 10
133.966182
 20
15.709112
 30
0.0
 40
0.077092
 50
313.999901
 51
0.0
  0
LINE
  8
0
 10
134.023274
 20
15.709112
 30
0.0
 11
134.023274
 21
16.899112
 31
0.0
  0
LINE
  8
0
 10
134.023274
 20
16.899112
 30
0.0
 11
133.293274
 21
16.899112
 31
0.0
  0
LINE
  8
0
 10
133.293274
 20
16.899112
 30
0.0
 11
133.293274
 21
15.709112
 31
0.0
  0
ARC
  8
0
 10
133.350366
 20
15.709112
 30
0.0
 40
0.057092
 50
180.0
 51
226.000099
  0
ARC
  8
0
 10
133.495759
 20
15.859671
 30
0.0
 40
0.266394
 50
226.000099
 51
248.198591
  0
ARC
  8
0
 10
133.593613
 20
16.104306
 30
0.0
 40
0.529874
 50
248.198591
 51
260.592388
  0
ARC
  8
0
 10
133.658274
 20
16.494569
 30
0.0
 40
0.925458
 50
260.592388
 51
270.0
  0
ARC
  8
0
 10
133.658274
 20
16.494569
 30
0.0
 40
0.925458
 50
270.0
 51
279.407612
  0
ARC
  8
0
 10
133.722935
 20
16.104306
 30
0.0
 40
0.529874
 50
279.407612
 51
291.801409
  0
ARC
  8
0
 10
133.820789
 20
15.859671
 30
0.0
 40
0.266394
 50
291.801409
 51
313.999901
  0
ARC
  8
0
 10
133.966182
 20
15.709112
 30
0.0
 40
0.057092
 50
313.999901
 51
360.0
  0
ENDSEC
  0
EOF
