  0
SECTION
  2
HEADER
  9
$ACADVER
  1
AC1009
  9
$INSBASE
 10
0.0
 20
0.0
 30
0.0
  9
$EXTMIN
 10
281.395795
 20
13.066259
 30
0.0
  9
$EXTMAX
 10
291.895795
 20
27.916259
 30
0.0
  9
$LIMMIN
 10
0.0
 20
0.0
  9
$LIMMAX
 10
410.0
 20
287.0
  9
$ORTHOMODE
 70
     1
  9
$REGENMODE
 70
     1
  9
$FILLMODE
 70
     1
  9
$QTEXTMODE
 70
     0
  9
$MIRRTEXT
 70
     1
  9
$DRAGMODE
 70
     2
  9
$LTSCALE
 40
25.0
  9
$OSMODE
 70
    32
  9
$ATTMODE
 70
     1
  9
$TEXTSIZE
 40
0.1
  9
$TRACEWID
 40
1.0
  9
$TEXTSTYLE
  7
ROMANC
  9
$CLAYER
  8
0
  9
$CELTYPE
  6
BYLAYER
  9
$CECOLOR
 62
   256
  9
$DIMSCALE
 40
1.5
  9
$DIMASZ
 40
0.1
  9
$DIMEXO
 40
0.01
  9
$DIMDLI
 40
7.0
  9
$DIMRND
 40
0.0
  9
$DIMDLE
 40
0.0
  9
$DIMEXE
 40
0.01
  9
$DIMTP
 40
0.0
  9
$DIMTM
 40
0.0
  9
$DIMTXT
 40
0.05
  9
$DIMCEN
 40
0.1
  9
$DIMTSZ
 40
0.0
  9
$DIMTOL
 70
     0
  9
$DIMLIM
 70
     0
  9
$DIMTIH
 70
     0
  9
$DIMTOH
 70
     0
  9
$DIMSE1
 70
     0
  9
$DIMSE2
 70
     0
  9
$DIMTAD
 70
     1
  9
$DIMZIN
 70
     0
  9
$DIMBLK
  1

  9
$DIMASO
 70
     1
  9
$DIMSHO
 70
     0
  9
$DIMPOST
  1

  9
$DIMAPOST
  1

  9
$DIMALT
 70
     0
  9
$DIMALTD
 70
     2
  9
$DIMALTF
 40
25.4
  9
$DIMLFAC
 40
1.0
  9
$DIMTOFL
 70
     1
  9
$DIMTVP
 40
0.0
  9
$DIMTIX
 70
     1
  9
$DIMSOXD
 70
     0
  9
$DIMSAH
 70
     0
  9
$DIMBLK1
  1

  9
$DIMBLK2
  1

  9
$DIMSTYLE
  2
SILVIA
  9
$DIMCLRD
 70
     0
  9
$DIMCLRE
 70
     0
  9
$DIMCLRT
 70
     0
  9
$DIMTFAC
 40
70.0
  9
$DIMGAP
 40
0.09
  9
$LUNITS
 70
     2
  9
$LUPREC
 70
     2
  9
$SKETCHINC
 40
1.0
  9
$FILLETRAD
 40
0.0
  9
$AUNITS
 70
     0
  9
$AUPREC
 70
     0
  9
$MENU
  1
acad
  9
$ELEVATION
 40
0.0
  9
$PELEVATION
 40
0.0
  9
$THICKNESS
 40
0.0
  9
$LIMCHECK
 70
     0
  9
$BLIPMODE
 70
     0
  9
$CHAMFERA
 40
0.0
  9
$CHAMFERB
 40
0.0
  9
$SKPOLY
 70
     0
  9
$TDCREATE
 40
2450079.698743171
  9
$TDUPDATE
 40
2450723.463759953
  9
$TDINDWG
 40
0.0007762731
  9
$TDUSRTIMER
 40
0.0007762731
  9
$USRTIMER
 70
     1
  9
$ANGBASE
 50
0.0
  9
$ANGDIR
 70
     0
  9
$PDMODE
 70
     0
  9
$PDSIZE
 40
0.0
  9
$PLINEWID
 40
0.0
  9
$COORDS
 70
     2
  9
$SPLFRAME
 70
     0
  9
$SPLINETYPE
 70
     6
  9
$SPLINESEGS
 70
     8
  9
$ATTDIA
 70
     0
  9
$ATTREQ
 70
     1
  9
$HANDLING
 70
     0
  9
$HANDSEED
  5
0
  9
$SURFTAB1
 70
     6
  9
$SURFTAB2
 70
     6
  9
$SURFTYPE
 70
     6
  9
$SURFU
 70
     6
  9
$SURFV
 70
     6
  9
$UCSNAME
  2

  9
$UCSORG
 10
0.0
 20
0.0
 30
0.0
  9
$UCSXDIR
 10
1.0
 20
0.0
 30
0.0
  9
$UCSYDIR
 10
0.0
 20
1.0
 30
0.0
  9
$PUCSNAME
  2

  9
$PUCSORG
 10
0.0
 20
0.0
 30
0.0
  9
$PUCSXDIR
 10
1.0
 20
0.0
 30
0.0
  9
$PUCSYDIR
 10
0.0
 20
1.0
 30
0.0
  9
$USERI1
 70
     0
  9
$USERI2
 70
     0
  9
$USERI3
 70
     0
  9
$USERI4
 70
     0
  9
$USERI5
 70
     0
  9
$USERR1
 40
0.0
  9
$USERR2
 40
0.0
  9
$USERR3
 40
0.0
  9
$USERR4
 40
0.0
  9
$USERR5
 40
0.0
  9
$WORLDVIEW
 70
     1
  9
$SHADEDGE
 70
     3
  9
$SHADEDIF
 70
    70
  9
$TILEMODE
 70
     1
  9
$MAXACTVP
 70
    16
  9
$PINSBASE
 10
0.0
 20
0.0
 30
0.0
  9
$PLIMCHECK
 70
     0
  9
$PEXTMIN
 10
1.000000E+20
 20
1.000000E+20
 30
1.000000E+20
  9
$PEXTMAX
 10
-1.000000E+20
 20
-1.000000E+20
 30
-1.000000E+20
  9
$PLIMMIN
 10
0.0
 20
0.0
  9
$PLIMMAX
 10
12.0
 20
9.0
  9
$UNITMODE
 70
     0
  9
$VISRETAIN
 70
     0
  9
$PLINEGEN
 70
     0
  9
$PSLTSCALE
 70
     0
  9
$TREEDEPTH
 70
  3020
  9
$DWGCODEPAGE
  3
iso8859-1
  0
ENDSEC
  0
SECTION
  2
TABLES
  0
TABLE
  2
VPORT
 70
     1
  0
VPORT
  2
*ACTIVE
 70
     0
 10
0.0
 20
0.0
 11
1.0
 21
1.0
 12
293.357646
 22
20.491259
 13
0.0
 23
0.0
 14
1.0
 24
1.0
 15
10.0
 25
10.0
 16
0.0
 26
0.0
 36
1.0
 17
0.0
 27
0.0
 37
0.0
 40
14.85
 41
1.611024
 42
50.0
 43
0.0
 44
0.0
 50
0.0
 51
0.0
 71
     0
 72
   100
 73
     1
 74
     0
 75
     0
 76
     0
 77
     0
 78
     1
  0
ENDTAB
  0
TABLE
  2
LTYPE
 70
     1
  0
LTYPE
  2
CONTINUOUS
 70
    64
  3
Solid line
 72
    65
 73
     0
 40
0.0
  0
ENDTAB
  0
TABLE
  2
LAYER
 70
     2
  0
LAYER
  2
0
 70
    64
 62
     7
  6
CONTINUOUS
  0
LAYER
  2
DEFPOINTS
 70
    64
 62
     7
  6
CONTINUOUS
  0
ENDTAB
  0
TABLE
  2
STYLE
 70
     2
  0
STYLE
  2
STANDARD
 70
     0
 40
0.0
 41
1.0
 50
0.0
 71
     0
 42
0.1
  3
txt
  4

  0
STYLE
  2
ROMANC
 70
    64
 40
0.0
 41
1.0
 50
0.0
 71
     0
 42
0.1
  3
romanc
  4

  0
ENDTAB
  0
TABLE
  2
VIEW
 70
     0
  0
ENDTAB
  0
TABLE
  2
UCS
 70
     0
  0
ENDTAB
  0
TABLE
  2
APPID
 70
     1
  0
APPID
  2
ACAD
 70
    64
  0
ENDTAB
  0
TABLE
  2
DIMSTYLE
 70
     1
  0
DIMSTYLE
  2
SILVIA
 70
    64
  3

  4

  5

  6

  7

 40
1.5
 41
0.1
 42
0.01
 43
7.0
 44
0.01
 45
0.0
 46
0.0
 47
0.0
 48
0.0
140
0.05
141
0.1
142
0.0
143
25.4
144
1.0
145
0.0
146
70.0
147
0.09
 71
     0
 72
     0
 73
     0
 74
     0
 75
     0
 76
     0
 77
     1
 78
     0
170
     0
171
     2
172
     1
173
     0
174
     1
175
     0
176
     0
177
     0
178
     0
  0
ENDTAB
  0
ENDSEC
  0
SECTION
  2
BLOCKS
  0
BLOCK
  8
0
  2
*D0
 70
    65
 10
0.0
 20
0.0
 30
0.0
  3
*D
  0
LINE
  8
0
  6
BYBLOCK
 62
     0
 10
283.596687
 20
18.32058
 30
0.0
 11
283.596687
 21
17.71346
 31
0.0
  0
LINE
  8
0
  6
BYBLOCK
 62
     0
 10
288.676687
 20
18.32058
 30
0.0
 11
288.676687
 21
17.71346
 31
0.0
  0
LINE
  8
0
  6
BYBLOCK
 62
     0
 10
283.746687
 20
17.72846
 30
0.0
 11
288.526687
 21
17.72846
 31
0.0
  0
SOLID
  8
0
  6
BYBLOCK
 62
     0
 10
283.746687
 20
17.75346
 30
0.0
 11
283.746687
 21
17.70346
 31
0.0
 12
283.596687
 22
17.72846
 32
0.0
 13
283.596687
 23
17.72846
 33
0.0
  0
SOLID
  8
0
  6
BYBLOCK
 62
     0
 10
288.526687
 20
17.75346
 30
0.0
 11
288.526687
 21
17.70346
 31
0.0
 12
288.676687
 22
17.72846
 32
0.0
 13
288.676687
 23
17.72846
 33
0.0
  0
TEXT
  8
0
  6
BYBLOCK
 62
     0
 10
286.011687
 20
17.76596
 30
0.0
 40
0.075
  1
5.10
  7
ROMANC
 72
     1
 11
286.136687
 21
17.80346
 31
0.0
 73
     2
  0
POINT
  8
DEFPOINTS
  6
BYBLOCK
 62
     0
 10
283.596687
 20
18.33558
 30
0.0
  0
POINT
  8
DEFPOINTS
  6
BYBLOCK
 62
     0
 10
288.676687
 20
18.33558
 30
0.0
  0
POINT
  8
DEFPOINTS
  6
BYBLOCK
 62
     0
 10
288.676687
 20
17.72846
 30
0.0
  0
ENDBLK
  8
0
  0
BLOCK
  8
0
  2
*D1
 70
    65
 10
0.0
 20
0.0
 30
0.0
  3
*D
  0
LINE
  8
0
  6
BYBLOCK
 62
     0
 10
288.676687
 20
18.32058
 30
0.0
 11
288.676687
 21
17.71346
 31
0.0
  0
LINE
  8
0
  6
BYBLOCK
 62
     0
 10
289.586687
 20
18.71058
 30
0.0
 11
289.586687
 21
17.71346
 31
0.0
  0
LINE
  8
0
  6
BYBLOCK
 62
     0
 10
288.826687
 20
17.72846
 30
0.0
 11
289.436687
 21
17.72846
 31
0.0
  0
SOLID
  8
0
  6
BYBLOCK
 62
     0
 10
288.826687
 20
17.75346
 30
0.0
 11
288.826687
 21
17.70346
 31
0.0
 12
288.676687
 22
17.72846
 32
0.0
 13
288.676687
 23
17.72846
 33
0.0
  0
SOLID
  8
0
  6
BYBLOCK
 62
     0
 10
289.436687
 20
17.75346
 30
0.0
 11
289.436687
 21
17.70346
 31
0.0
 12
289.586687
 22
17.72846
 32
0.0
 13
289.586687
 23
17.72846
 33
0.0
  0
TEXT
  8
0
  6
BYBLOCK
 62
     0
 10
289.006687
 20
17.76596
 30
0.0
 40
0.075
  1
0.90
  7
ROMANC
 72
     1
 11
289.131687
 21
17.80346
 31
0.0
 73
     2
  0
POINT
  8
DEFPOINTS
  6
BYBLOCK
 62
     0
 10
288.676687
 20
18.33558
 30
0.0
  0
POINT
  8
DEFPOINTS
  6
BYBLOCK
 62
     0
 10
289.586687
 20
18.72558
 30
0.0
  0
POINT
  8
DEFPOINTS
  6
BYBLOCK
 62
     0
 10
289.586687
 20
17.72846
 30
0.0
  0
ENDBLK
  8
0
  0
BLOCK
  8
0
  2
*D2
 70
    65
 10
0.0
 20
0.0
 30
0.0
  3
*D
  0
LINE
  8
0
  6
BYBLOCK
 62
     0
 10
289.591687
 20
19.769918
 30
0.0
 11
290.274422
 21
19.769918
 31
0.0
  0
LINE
  8
0
  6
BYBLOCK
 62
     0
 10
289.591687
 20
18.73558
 30
0.0
 11
290.274422
 21
18.73558
 31
0.0
  0
LINE
  8
0
  6
BYBLOCK
 62
     0
 10
290.259422
 20
19.619918
 30
0.0
 11
290.259422
 21
18.88558
 31
0.0
  0
SOLID
  8
0
  6
BYBLOCK
 62
     0
 10
290.234422
 20
19.619918
 30
0.0
 11
290.284422
 21
19.619918
 31
0.0
 12
290.259422
 22
19.769918
 32
0.0
 13
290.259422
 23
19.769918
 33
0.0
  0
SOLID
  8
0
  6
BYBLOCK
 62
     0
 10
290.234422
 20
18.88558
 30
0.0
 11
290.284422
 21
18.88558
 31
0.0
 12
290.259422
 22
18.73558
 32
0.0
 13
290.259422
 23
18.73558
 33
0.0
  0
TEXT
  8
0
  6
BYBLOCK
 62
     0
 10
290.221922
 20
19.122392
 30
0.0
 40
0.075
  1
1.05
 50
90.0
  7
ROMANC
 72
     1
 11
290.184422
 21
19.252749
 31
0.0
 73
     2
  0
POINT
  8
DEFPOINTS
  6
BYBLOCK
 62
     0
 10
289.576687
 20
19.769918
 30
0.0
  0
POINT
  8
DEFPOINTS
  6
BYBLOCK
 62
     0
 10
289.576687
 20
18.73558
 30
0.0
  0
POINT
  8
DEFPOINTS
  6
BYBLOCK
 62
     0
 10
290.259422
 20
18.73558
 30
0.0
  0
ENDBLK
  8
0
  0
BLOCK
  8
0
  2
*D3
 70
    65
 10
0.0
 20
0.0
 30
0.0
  3
*D
  0
LINE
  8
0
  6
BYBLOCK
 62
     0
 10
289.591687
 20
18.73558
 30
0.0
 11
290.274422
 21
18.73558
 31
0.0
  0
LINE
  8
0
  6
BYBLOCK
 62
     0
 10
288.691687
 20
18.33558
 30
0.0
 11
290.274422
 21
18.33558
 31
0.0
  0
LINE
  8
0
  6
BYBLOCK
 62
     0
 10
290.259422
 20
18.88558
 30
0.0
 11
290.259422
 21
19.03558
 31
0.0
  0
LINE
  8
0
  6
BYBLOCK
 62
     0
 10
290.259422
 20
18.18558
 30
0.0
 11
290.259422
 21
18.03558
 31
0.0
  0
SOLID
  8
0
  6
BYBLOCK
 62
     0
 10
290.234422
 20
18.88558
 30
0.0
 11
290.284422
 21
18.88558
 31
0.0
 12
290.259422
 22
18.73558
 32
0.0
 13
290.259422
 23
18.73558
 33
0.0
  0
SOLID
  8
0
  6
BYBLOCK
 62
     0
 10
290.234422
 20
18.18558
 30
0.0
 11
290.284422
 21
18.18558
 31
0.0
 12
290.259422
 22
18.33558
 32
0.0
 13
290.259422
 23
18.33558
 33
0.0
  0
LINE
  8
0
  6
BYBLOCK
 62
     0
 10
290.259422
 20
18.73558
 30
0.0
 11
290.259422
 21
18.33558
 31
0.0
  0
TEXT
  8
0
  6
BYBLOCK
 62
     0
 10
290.221922
 20
18.41058
 30
0.0
 40
0.075
  1
0.40
 50
90.0
  7
ROMANC
 72
     1
 11
290.184422
 21
18.53558
 31
0.0
 73
     2
  0
POINT
  8
DEFPOINTS
  6
BYBLOCK
 62
     0
 10
289.576687
 20
18.73558
 30
0.0
  0
POINT
  8
DEFPOINTS
  6
BYBLOCK
 62
     0
 10
288.676687
 20
18.33558
 30
0.0
  0
POINT
  8
DEFPOINTS
  6
BYBLOCK
 62
     0
 10
290.259422
 20
18.33558
 30
0.0
  0
ENDBLK
  8
0
  0
BLOCK
  8
0
  2
*D4
 70
    65
 10
0.0
 20
0.0
 30
0.0
  3
*D
  0
LINE
  8
0
  6
BYBLOCK
 62
     0
 10
289.591687
 20
19.769918
 30
0.0
 11
290.274422
 21
19.769918
 31
0.0
  0
LINE
  8
0
  6
BYBLOCK
 62
     0
 10
289.101687
 20
20.07558
 30
0.0
 11
290.274422
 21
20.07558
 31
0.0
  0
LINE
  8
0
  6
BYBLOCK
 62
     0
 10
290.259422
 20
19.619918
 30
0.0
 11
290.259422
 21
19.469918
 31
0.0
  0
LINE
  8
0
  6
BYBLOCK
 62
     0
 10
290.259422
 20
20.22558
 30
0.0
 11
290.259422
 21
20.37558
 31
0.0
  0
SOLID
  8
0
  6
BYBLOCK
 62
     0
 10
290.234422
 20
19.619918
 30
0.0
 11
290.284422
 21
19.619918
 31
0.0
 12
290.259422
 22
19.769918
 32
0.0
 13
290.259422
 23
19.769918
 33
0.0
  0
SOLID
  8
0
  6
BYBLOCK
 62
     0
 10
290.234422
 20
20.22558
 30
0.0
 11
290.284422
 21
20.22558
 31
0.0
 12
290.259422
 22
20.07558
 32
0.0
 13
290.259422
 23
20.07558
 33
0.0
  0
LINE
  8
0
  6
BYBLOCK
 62
     0
 10
290.259422
 20
19.769918
 30
0.0
 11
290.259422
 21
20.07558
 31
0.0
  0
TEXT
  8
0
  6
BYBLOCK
 62
     0
 10
290.221922
 20
19.797749
 30
0.0
 40
0.075
  1
0.30
 50
90.0
  7
ROMANC
 72
     1
 11
290.184422
 21
19.922749
 31
0.0
 73
     2
  0
POINT
  8
DEFPOINTS
  6
BYBLOCK
 62
     0
 10
289.576687
 20
19.769918
 30
0.0
  0
POINT
  8
DEFPOINTS
  6
BYBLOCK
 62
     0
 10
289.086687
 20
20.07558
 30
0.0
  0
POINT
  8
DEFPOINTS
  6
BYBLOCK
 62
     0
 10
290.259422
 20
20.07558
 30
0.0
  0
ENDBLK
  8
0
  0
BLOCK
  8
0
  2
*D5
 70
    65
 10
0.0
 20
0.0
 30
0.0
  3
*D
  0
LINE
  8
0
  6
BYBLOCK
 62
     0
 10
289.083917
 20
20.08058
 30
0.0
 11
289.083917
 21
20.402144
 31
0.0
  0
LINE
  8
0
  6
BYBLOCK
 62
     0
 10
289.576687
 20
19.784918
 30
0.0
 11
289.576687
 21
20.402144
 31
0.0
  0
LINE
  8
0
  6
BYBLOCK
 62
     0
 10
288.933917
 20
20.387144
 30
0.0
 11
288.783917
 21
20.387144
 31
0.0
  0
LINE
  8
0
  6
BYBLOCK
 62
     0
 10
289.726687
 20
20.387144
 30
0.0
 11
289.876687
 21
20.387144
 31
0.0
  0
SOLID
  8
0
  6
BYBLOCK
 62
     0
 10
288.933917
 20
20.412144
 30
0.0
 11
288.933917
 21
20.362144
 31
0.0
 12
289.083917
 22
20.387144
 32
0.0
 13
289.083917
 23
20.387144
 33
0.0
  0
SOLID
  8
0
  6
BYBLOCK
 62
     0
 10
289.726687
 20
20.412144
 30
0.0
 11
289.726687
 21
20.362144
 31
0.0
 12
289.576687
 22
20.387144
 32
0.0
 13
289.576687
 23
20.387144
 33
0.0
  0
LINE
  8
0
  6
BYBLOCK
 62
     0
 10
289.083917
 20
20.387144
 30
0.0
 11
289.576687
 21
20.387144
 31
0.0
  0
TEXT
  8
0
  6
BYBLOCK
 62
     0
 10
289.205302
 20
20.424644
 30
0.0
 40
0.075
  1
0.50
  7
ROMANC
 72
     1
 11
289.330302
 21
20.462144
 31
0.0
 73
     2
  0
POINT
  8
DEFPOINTS
  6
BYBLOCK
 62
     0
 10
289.083917
 20
20.06558
 30
0.0
  0
POINT
  8
DEFPOINTS
  6
BYBLOCK
 62
     0
 10
289.576687
 20
19.769918
 30
0.0
  0
POINT
  8
DEFPOINTS
  6
BYBLOCK
 62
     0
 10
289.576687
 20
20.387144
 30
0.0
  0
ENDBLK
  8
0
  0
BLOCK
  8
0
  2
*D6
 70
    65
 10
0.0
 20
0.0
 30
0.0
  3
*D
  0
LINE
  8
0
  6
BYBLOCK
 62
     0
 10
283.596687
 20
17.71346
 30
0.0
 11
283.596687
 21
17.236417
 31
0.0
  0
LINE
  8
0
  6
BYBLOCK
 62
     0
 10
289.586687
 20
17.71346
 30
0.0
 11
289.586687
 21
17.236417
 31
0.0
  0
LINE
  8
0
  6
BYBLOCK
 62
     0
 10
283.746687
 20
17.251417
 30
0.0
 11
289.436687
 21
17.251417
 31
0.0
  0
SOLID
  8
0
  6
BYBLOCK
 62
     0
 10
283.746687
 20
17.276417
 30
0.0
 11
283.746687
 21
17.226417
 31
0.0
 12
283.596687
 22
17.251417
 32
0.0
 13
283.596687
 23
17.251417
 33
0.0
  0
SOLID
  8
0
  6
BYBLOCK
 62
     0
 10
289.436687
 20
17.276417
 30
0.0
 11
289.436687
 21
17.226417
 31
0.0
 12
289.586687
 22
17.251417
 32
0.0
 13
289.586687
 23
17.251417
 33
0.0
  0
TEXT
  8
0
  6
BYBLOCK
 62
     0
 10
286.466687
 20
17.288917
 30
0.0
 40
0.075
  1
5.99
  7
ROMANC
 72
     1
 11
286.591687
 21
17.326417
 31
0.0
 73
     2
  0
POINT
  8
DEFPOINTS
  6
BYBLOCK
 62
     0
 10
283.596687
 20
17.72846
 30
0.0
  0
POINT
  8
DEFPOINTS
  6
BYBLOCK
 62
     0
 10
289.586687
 20
17.72846
 30
0.0
  0
POINT
  8
DEFPOINTS
  6
BYBLOCK
 62
     0
 10
289.586687
 20
17.251417
 30
0.0
  0
ENDBLK
  8
0
  0
BLOCK
  8
0
  2
*D7
 70
    65
 10
0.0
 20
0.0
 30
0.0
  3
*D
  0
LINE
  8
0
  6
BYBLOCK
 62
     0
 10
290.274422
 20
18.33558
 30
0.0
 11
290.695645
 21
18.33558
 31
0.0
  0
LINE
  8
0
  6
BYBLOCK
 62
     0
 10
290.274422
 20
20.07558
 30
0.0
 11
290.695645
 21
20.07558
 31
0.0
  0
LINE
  8
0
  6
BYBLOCK
 62
     0
 10
290.680645
 20
18.48558
 30
0.0
 11
290.680645
 21
19.92558
 31
0.0
  0
SOLID
  8
0
  6
BYBLOCK
 62
     0
 10
290.655645
 20
18.48558
 30
0.0
 11
290.705645
 21
18.48558
 31
0.0
 12
290.680645
 22
18.33558
 32
0.0
 13
290.680645
 23
18.33558
 33
0.0
  0
SOLID
  8
0
  6
BYBLOCK
 62
     0
 10
290.655645
 20
19.92558
 30
0.0
 11
290.705645
 21
19.92558
 31
0.0
 12
290.680645
 22
20.07558
 32
0.0
 13
290.680645
 23
20.07558
 33
0.0
  0
TEXT
  8
0
  6
BYBLOCK
 62
     0
 10
290.643145
 20
19.073437
 30
0.0
 40
0.075
  1
1.74
 50
90.0
  7
ROMANC
 72
     1
 11
290.605645
 21
19.20558
 31
0.0
 73
     2
  0
POINT
  8
DEFPOINTS
  6
BYBLOCK
 62
     0
 10
290.259422
 20
18.33558
 30
0.0
  0
POINT
  8
DEFPOINTS
  6
BYBLOCK
 62
     0
 10
290.259422
 20
20.07558
 30
0.0
  0
POINT
  8
DEFPOINTS
  6
BYBLOCK
 62
     0
 10
290.680645
 20
20.07558
 30
0.0
  0
ENDBLK
  8
0
  0
ENDSEC
  0
SECTION
  2
ENTITIES
  0
TEXT
  8
0
 10
283.887846
 20
23.730235
 30
0.0
 40
0.3
  1
P = 150 dm
  7
ROMANC
  0
TEXT
  8
0
 10
283.938862
 20
24.427814
 30
0.0
 40
0.3
  1
S = 999  dm
  7
ROMANC
  0
TEXT
  8
0
 10
283.925768
 20
25.512118
 30
0.0
 40
0.3
  1
TIPUS   NT999A
  7
ROMANC
  0
LINE
  8
0
 10
291.895795
 20
27.916259
 30
0.0
 11
281.395795
 21
27.916259
 31
0.0
  0
TEXT
  8
0
 10
283.925768
 20
25.026404
 30
0.0
 40
0.3
  1
ESCALA  1:50
  7
ROMANC
  0
LINE
  8
0
 10
281.395795
 20
13.066259
 30
0.0
 11
291.895795
 21
13.066259
 31
0.0
  0
LINE
  8
0
 10
281.395795
 20
27.916259
 30
0.0
 11
281.395795
 21
13.066259
 31
0.0
  0
LINE
  8
0
 10
291.895795
 20
13.066259
 30
0.0
 11
291.895795
 21
27.916259
 31
0.0
  0
TEXT
  8
0
 10
287.412496
 20
24.73373
 30
0.0
 40
0.1
  1
2
  7
ROMANC
  0
LINE
  8
0
  6
BYBLOCK
 62
     0
 10
283.596687
 20
17.71346
 30
0.0
 11
283.596687
 21
17.236417
 31
0.0
  0
LINE
  8
0
  6
BYBLOCK
 62
     0
 10
289.586687
 20
17.71346
 30
0.0
 11
289.586687
 21
17.236417
 31
0.0
  0
LINE
  8
0
  6
BYBLOCK
 62
     0
 10
283.746687
 20
17.251417
 30
0.0
 11
289.436687
 21
17.251417
 31
0.0
  0
SOLID
  8
0
  6
BYBLOCK
 62
     0
 10
283.746687
 20
17.276417
 30
0.0
 11
283.746687
 21
17.226417
 31
0.0
 12
283.596687
 22
17.251417
 32
0.0
 13
283.596687
 23
17.251417
 33
0.0
  0
SOLID
  8
0
  6
BYBLOCK
 62
     0
 10
289.436687
 20
17.276417
 30
0.0
 11
289.436687
 21
17.226417
 31
0.0
 12
289.586687
 22
17.251417
 32
0.0
 13
289.586687
 23
17.251417
 33
0.0
  0
TEXT
  8
0
  6
BYBLOCK
 62
     0
 10
286.466687
 20
17.288917
 30
0.0
 40
0.075
  1
5.99
  7
ROMANC
 72
     1
 11
286.591687
 21
17.326417
 31
0.0
 73
     2
  0
POINT
  8
DEFPOINTS
  6
BYBLOCK
 62
     0
 10
283.596687
 20
17.72846
 30
0.0
  0
POINT
  8
DEFPOINTS
  6
BYBLOCK
 62
     0
 10
289.586687
 20
17.72846
 30
0.0
  0
POINT
  8
DEFPOINTS
  6
BYBLOCK
 62
     0
 10
289.586687
 20
17.251417
 30
0.0
  0
LINE
  8
0
 10
289.586687
 20
18.72558
 30
0.0
 11
288.686687
 21
18.72558
 31
0.0
  0
LINE
  8
0
 10
288.686687
 20
18.72558
 30
0.0
 11
288.686687
 21
18.32558
 31
0.0
  0
LINE
  8
0
 10
288.686687
 20
18.32558
 30
0.0
 11
283.586687
 21
18.32558
 31
0.0
  0
LINE
  8
0
 10
283.586687
 20
18.32558
 30
0.0
 11
283.586687
 21
19.77558
 31
0.0
  0
LINE
  8
0
 10
283.586687
 20
19.77558
 30
0.0
 11
284.086687
 21
20.07558
 31
0.0
  0
LINE
  8
0
 10
284.086687
 20
20.07558
 30
0.0
 11
289.086687
 21
20.07558
 31
0.0
  0
LINE
  8
0
 10
289.086687
 20
20.07558
 30
0.0
 11
289.586687
 21
19.77558
 31
0.0
  0
LINE
  8
0
 10
289.586687
 20
19.77558
 30
0.0
 11
289.586687
 21
18.72558
 31
0.0
  0
LINE
  8
0
 10
289.596687
 20
18.71558
 30
0.0
 11
288.696687
 21
18.71558
 31
0.0
  0
LINE
  8
0
 10
288.696687
 20
18.71558
 30
0.0
 11
288.696687
 21
18.31558
 31
0.0
  0
LINE
  8
0
 10
288.696687
 20
18.31558
 30
0.0
 11
283.576687
 21
18.31558
 31
0.0
  0
LINE
  8
0
 10
283.576687
 20
18.31558
 30
0.0
 11
283.576687
 21
19.781242
 31
0.0
  0
LINE
  8
0
 10
283.576687
 20
19.781242
 30
0.0
 11
284.083917
 21
20.08558
 31
0.0
  0
LINE
  8
0
 10
284.083917
 20
20.08558
 30
0.0
 11
289.089457
 21
20.08558
 31
0.0
  0
LINE
  8
0
 10
289.089457
 20
20.08558
 30
0.0
 11
289.596687
 21
19.781242
 31
0.0
  0
LINE
  8
0
 10
289.596687
 20
19.781242
 30
0.0
 11
289.596687
 21
18.71558
 31
0.0
  0
LINE
  8
0
 10
289.586687
 20
18.72558
 30
0.0
 11
288.686687
 21
18.72558
 31
0.0
  0
LINE
  8
0
 10
288.686687
 20
18.72558
 30
0.0
 11
288.686687
 21
18.32558
 31
0.0
  0
LINE
  8
0
 10
288.686687
 20
18.32558
 30
0.0
 11
283.586687
 21
18.32558
 31
0.0
  0
LINE
  8
0
 10
283.586687
 20
18.32558
 30
0.0
 11
283.586687
 21
19.77558
 31
0.0
  0
LINE
  8
0
 10
283.586687
 20
19.77558
 30
0.0
 11
284.086687
 21
20.07558
 31
0.0
  0
LINE
  8
0
 10
284.086687
 20
20.07558
 30
0.0
 11
289.086687
 21
20.07558
 31
0.0
  0
LINE
  8
0
 10
289.086687
 20
20.07558
 30
0.0
 11
289.586687
 21
19.77558
 31
0.0
  0
LINE
  8
0
 10
289.586687
 20
19.77558
 30
0.0
 11
289.586687
 21
18.72558
 31
0.0
  0
LINE
  8
0
 10
289.576687
 20
18.73558
 30
0.0
 11
288.676687
 21
18.73558
 31
0.0
  0
LINE
  8
0
 10
288.676687
 20
18.73558
 30
0.0
 11
288.676687
 21
18.33558
 31
0.0
  0
LINE
  8
0
 10
288.676687
 20
18.33558
 30
0.0
 11
283.596687
 21
18.33558
 31
0.0
  0
LINE
  8
0
 10
283.596687
 20
18.33558
 30
0.0
 11
283.596687
 21
19.769918
 31
0.0
  0
LINE
  8
0
 10
283.596687
 20
19.769918
 30
0.0
 11
284.089457
 21
20.06558
 31
0.0
  0
LINE
  8
0
 10
284.089457
 20
20.06558
 30
0.0
 11
289.083917
 21
20.06558
 31
0.0
  0
LINE
  8
0
 10
289.083917
 20
20.06558
 30
0.0
 11
289.576687
 21
19.769918
 31
0.0
  0
LINE
  8
0
 10
289.576687
 20
19.769918
 30
0.0
 11
289.576687
 21
18.73558
 31
0.0
  0
LINE
  8
0
  6
BYBLOCK
 62
     0
 10
283.596687
 20
18.32058
 30
0.0
 11
283.596687
 21
17.71346
 31
0.0
  0
LINE
  8
0
  6
BYBLOCK
 62
     0
 10
288.676687
 20
18.32058
 30
0.0
 11
288.676687
 21
17.71346
 31
0.0
  0
LINE
  8
0
  6
BYBLOCK
 62
     0
 10
283.746687
 20
17.72846
 30
0.0
 11
288.526687
 21
17.72846
 31
0.0
  0
SOLID
  8
0
  6
BYBLOCK
 62
     0
 10
283.746687
 20
17.75346
 30
0.0
 11
283.746687
 21
17.70346
 31
0.0
 12
283.596687
 22
17.72846
 32
0.0
 13
283.596687
 23
17.72846
 33
0.0
  0
SOLID
  8
0
  6
BYBLOCK
 62
     0
 10
288.526687
 20
17.75346
 30
0.0
 11
288.526687
 21
17.70346
 31
0.0
 12
288.676687
 22
17.72846
 32
0.0
 13
288.676687
 23
17.72846
 33
0.0
  0
TEXT
  8
0
  6
BYBLOCK
 62
     0
 10
286.011687
 20
17.76596
 30
0.0
 40
0.075
  1
5.10
  7
ROMANC
 72
     1
 11
286.136687
 21
17.80346
 31
0.0
 73
     2
  0
POINT
  8
DEFPOINTS
  6
BYBLOCK
 62
     0
 10
283.596687
 20
18.33558
 30
0.0
  0
POINT
  8
DEFPOINTS
  6
BYBLOCK
 62
     0
 10
288.676687
 20
18.33558
 30
0.0
  0
POINT
  8
DEFPOINTS
  6
BYBLOCK
 62
     0
 10
288.676687
 20
17.72846
 30
0.0
  0
LINE
  8
0
  6
BYBLOCK
 62
     0
 10
290.274422
 20
18.33558
 30
0.0
 11
290.695645
 21
18.33558
 31
0.0
  0
LINE
  8
0
  6
BYBLOCK
 62
     0
 10
290.274422
 20
20.07558
 30
0.0
 11
290.695645
 21
20.07558
 31
0.0
  0
LINE
  8
0
  6
BYBLOCK
 62
     0
 10
290.680645
 20
18.48558
 30
0.0
 11
290.680645
 21
19.92558
 31
0.0
  0
SOLID
  8
0
  6
BYBLOCK
 62
     0
 10
290.655645
 20
18.48558
 30
0.0
 11
290.705645
 21
18.48558
 31
0.0
 12
290.680645
 22
18.33558
 32
0.0
 13
290.680645
 23
18.33558
 33
0.0
  0
SOLID
  8
0
  6
BYBLOCK
 62
     0
 10
290.655645
 20
19.92558
 30
0.0
 11
290.705645
 21
19.92558
 31
0.0
 12
290.680645
 22
20.07558
 32
0.0
 13
290.680645
 23
20.07558
 33
0.0
  0
TEXT
  8
0
  6
BYBLOCK
 62
     0
 10
290.643145
 20
19.075223
 30
0.0
 40
0.075
  1
1.75
 50
90.0
  7
ROMANC
 72
     4
 11
290.605645
 21
19.20558
 31
0.0
  0
POINT
  8
DEFPOINTS
  6
BYBLOCK
 62
     0
 10
290.259422
 20
18.33558
 30
0.0
  0
POINT
  8
DEFPOINTS
  6
BYBLOCK
 62
     0
 10
290.259422
 20
20.07558
 30
0.0
  0
POINT
  8
DEFPOINTS
  6
BYBLOCK
 62
     0
 10
290.680645
 20
20.07558
 30
0.0
  0
LINE
  8
0
  6
BYBLOCK
 62
     0
 10
289.591687
 20
19.769918
 30
0.0
 11
290.274422
 21
19.769918
 31
0.0
  0
LINE
  8
0
  6
BYBLOCK
 62
     0
 10
289.591687
 20
18.73558
 30
0.0
 11
290.274422
 21
18.73558
 31
0.0
  0
LINE
  8
0
  6
BYBLOCK
 62
     0
 10
290.259422
 20
19.619918
 30
0.0
 11
290.259422
 21
18.88558
 31
0.0
  0
SOLID
  8
0
  6
BYBLOCK
 62
     0
 10
290.234422
 20
19.619918
 30
0.0
 11
290.284422
 21
19.619918
 31
0.0
 12
290.259422
 22
19.769918
 32
0.0
 13
290.259422
 23
19.769918
 33
0.0
  0
SOLID
  8
0
  6
BYBLOCK
 62
     0
 10
290.234422
 20
18.88558
 30
0.0
 11
290.284422
 21
18.88558
 31
0.0
 12
290.259422
 22
18.73558
 32
0.0
 13
290.259422
 23
18.73558
 33
0.0
  0
TEXT
  8
0
  6
BYBLOCK
 62
     0
 10
290.221922
 20
19.122392
 30
0.0
 40
0.075
  1
1.05
 50
90.0
  7
ROMANC
 72
     1
 11
290.184422
 21
19.252749
 31
0.0
 73
     2
  0
POINT
  8
DEFPOINTS
  6
BYBLOCK
 62
     0
 10
289.576687
 20
19.769918
 30
0.0
  0
POINT
  8
DEFPOINTS
  6
BYBLOCK
 62
     0
 10
289.576687
 20
18.73558
 30
0.0
  0
POINT
  8
DEFPOINTS
  6
BYBLOCK
 62
     0
 10
290.259422
 20
18.73558
 30
0.0
  0
LINE
  8
0
  6
BYBLOCK
 62
     0
 10
288.676687
 20
18.32058
 30
0.0
 11
288.676687
 21
17.71346
 31
0.0
  0
LINE
  8
0
  6
BYBLOCK
 62
     0
 10
289.586687
 20
18.71058
 30
0.0
 11
289.586687
 21
17.71346
 31
0.0
  0
LINE
  8
0
  6
BYBLOCK
 62
     0
 10
288.826687
 20
17.72846
 30
0.0
 11
289.436687
 21
17.72846
 31
0.0
  0
SOLID
  8
0
  6
BYBLOCK
 62
     0
 10
288.826687
 20
17.75346
 30
0.0
 11
288.826687
 21
17.70346
 31
0.0
 12
288.676687
 22
17.72846
 32
0.0
 13
288.676687
 23
17.72846
 33
0.0
  0
SOLID
  8
0
  6
BYBLOCK
 62
     0
 10
289.436687
 20
17.75346
 30
0.0
 11
289.436687
 21
17.70346
 31
0.0
 12
289.586687
 22
17.72846
 32
0.0
 13
289.586687
 23
17.72846
 33
0.0
  0
TEXT
  8
0
  6
BYBLOCK
 62
     0
 10
289.006687
 20
17.76596
 30
0.0
 40
0.075
  1
0.90
  7
ROMANC
 72
     1
 11
289.131687
 21
17.80346
 31
0.0
 73
     2
  0
POINT
  8
DEFPOINTS
  6
BYBLOCK
 62
     0
 10
288.676687
 20
18.33558
 30
0.0
  0
POINT
  8
DEFPOINTS
  6
BYBLOCK
 62
     0
 10
289.586687
 20
18.72558
 30
0.0
  0
POINT
  8
DEFPOINTS
  6
BYBLOCK
 62
     0
 10
289.586687
 20
17.72846
 30
0.0
  0
LINE
  8
0
  6
BYBLOCK
 62
     0
 10
289.591687
 20
18.73558
 30
0.0
 11
290.274422
 21
18.73558
 31
0.0
  0
LINE
  8
0
  6
BYBLOCK
 62
     0
 10
288.691687
 20
18.33558
 30
0.0
 11
290.274422
 21
18.33558
 31
0.0
  0
LINE
  8
0
  6
BYBLOCK
 62
     0
 10
290.259422
 20
18.88558
 30
0.0
 11
290.259422
 21
19.03558
 31
0.0
  0
LINE
  8
0
  6
BYBLOCK
 62
     0
 10
290.259422
 20
18.18558
 30
0.0
 11
290.259422
 21
18.03558
 31
0.0
  0
SOLID
  8
0
  6
BYBLOCK
 62
     0
 10
290.234422
 20
18.88558
 30
0.0
 11
290.284422
 21
18.88558
 31
0.0
 12
290.259422
 22
18.73558
 32
0.0
 13
290.259422
 23
18.73558
 33
0.0
  0
SOLID
  8
0
  6
BYBLOCK
 62
     0
 10
290.234422
 20
18.18558
 30
0.0
 11
290.284422
 21
18.18558
 31
0.0
 12
290.259422
 22
18.33558
 32
0.0
 13
290.259422
 23
18.33558
 33
0.0
  0
LINE
  8
0
  6
BYBLOCK
 62
     0
 10
290.259422
 20
18.73558
 30
0.0
 11
290.259422
 21
18.33558
 31
0.0
  0
TEXT
  8
0
  6
BYBLOCK
 62
     0
 10
290.221922
 20
18.41058
 30
0.0
 40
0.075
  1
0.40
 50
90.0
  7
ROMANC
 72
     1
 11
290.184422
 21
18.53558
 31
0.0
 73
     2
  0
POINT
  8
DEFPOINTS
  6
BYBLOCK
 62
     0
 10
289.576687
 20
18.73558
 30
0.0
  0
POINT
  8
DEFPOINTS
  6
BYBLOCK
 62
     0
 10
288.676687
 20
18.33558
 30
0.0
  0
POINT
  8
DEFPOINTS
  6
BYBLOCK
 62
     0
 10
290.259422
 20
18.33558
 30
0.0
  0
LINE
  8
0
  6
BYBLOCK
 62
     0
 10
289.083917
 20
20.08058
 30
0.0
 11
289.083917
 21
20.402144
 31
0.0
  0
LINE
  8
0
  6
BYBLOCK
 62
     0
 10
289.576687
 20
19.784918
 30
0.0
 11
289.576687
 21
20.402144
 31
0.0
  0
LINE
  8
0
  6
BYBLOCK
 62
     0
 10
288.933917
 20
20.387144
 30
0.0
 11
288.783917
 21
20.387144
 31
0.0
  0
LINE
  8
0
  6
BYBLOCK
 62
     0
 10
289.726687
 20
20.387144
 30
0.0
 11
289.876687
 21
20.387144
 31
0.0
  0
SOLID
  8
0
  6
BYBLOCK
 62
     0
 10
288.933917
 20
20.412144
 30
0.0
 11
288.933917
 21
20.362144
 31
0.0
 12
289.083917
 22
20.387144
 32
0.0
 13
289.083917
 23
20.387144
 33
0.0
  0
SOLID
  8
0
  6
BYBLOCK
 62
     0
 10
289.726687
 20
20.412144
 30
0.0
 11
289.726687
 21
20.362144
 31
0.0
 12
289.576687
 22
20.387144
 32
0.0
 13
289.576687
 23
20.387144
 33
0.0
  0
LINE
  8
0
  6
BYBLOCK
 62
     0
 10
289.083917
 20
20.387144
 30
0.0
 11
289.576687
 21
20.387144
 31
0.0
  0
TEXT
  8
0
  6
BYBLOCK
 62
     0
 10
289.205302
 20
20.424644
 30
0.0
 40
0.075
  1
0.50
  7
ROMANC
 72
     1
 11
289.330302
 21
20.462144
 31
0.0
 73
     2
  0
POINT
  8
DEFPOINTS
  6
BYBLOCK
 62
     0
 10
289.083917
 20
20.06558
 30
0.0
  0
POINT
  8
DEFPOINTS
  6
BYBLOCK
 62
     0
 10
289.576687
 20
19.769918
 30
0.0
  0
POINT
  8
DEFPOINTS
  6
BYBLOCK
 62
     0
 10
289.576687
 20
20.387144
 30
0.0
  0
LINE
  8
0
  6
BYBLOCK
 62
     0
 10
289.591687
 20
19.769918
 30
0.0
 11
290.274422
 21
19.769918
 31
0.0
  0
LINE
  8
0
  6
BYBLOCK
 62
     0
 10
289.101687
 20
20.07558
 30
0.0
 11
290.274422
 21
20.07558
 31
0.0
  0
LINE
  8
0
  6
BYBLOCK
 62
     0
 10
290.259422
 20
19.619918
 30
0.0
 11
290.259422
 21
19.469918
 31
0.0
  0
LINE
  8
0
  6
BYBLOCK
 62
     0
 10
290.259422
 20
20.22558
 30
0.0
 11
290.259422
 21
20.37558
 31
0.0
  0
SOLID
  8
0
  6
BYBLOCK
 62
     0
 10
290.234422
 20
19.619918
 30
0.0
 11
290.284422
 21
19.619918
 31
0.0
 12
290.259422
 22
19.769918
 32
0.0
 13
290.259422
 23
19.769918
 33
0.0
  0
SOLID
  8
0
  6
BYBLOCK
 62
     0
 10
290.234422
 20
20.22558
 30
0.0
 11
290.284422
 21
20.22558
 31
0.0
 12
290.259422
 22
20.07558
 32
0.0
 13
290.259422
 23
20.07558
 33
0.0
  0
LINE
  8
0
  6
BYBLOCK
 62
     0
 10
290.259422
 20
19.769918
 30
0.0
 11
290.259422
 21
20.07558
 31
0.0
  0
TEXT
  8
0
  6
BYBLOCK
 62
     0
 10
290.221922
 20
19.797749
 30
0.0
 40
0.075
  1
0.30
 50
90.0
  7
ROMANC
 72
     1
 11
290.184422
 21
19.922749
 31
0.0
 73
     2
  0
POINT
  8
DEFPOINTS
  6
BYBLOCK
 62
     0
 10
289.576687
 20
19.769918
 30
0.0
  0
POINT
  8
DEFPOINTS
  6
BYBLOCK
 62
     0
 10
289.086687
 20
20.07558
 30
0.0
  0
POINT
  8
DEFPOINTS
  6
BYBLOCK
 62
     0
 10
290.259422
 20
20.07558
 30
0.0
  0
ENDSEC
  0
EOF
