  0
SECTION
  2
HEADER
  9
$ACADVER
  1
AC1009
  9
$INSBASE
 10
135.223006
 20
249.695552
 30
0.0
  9
$EXTMIN
 10
135.223006
 20
249.695552
 30
0.0
  9
$EXTMAX
 10
145.723006
 20
264.545552
 30
0.0
  9
$LIMMIN
 10
0.0
 20
0.0
  9
$LIMMAX
 10
410.0
 20
287.0
  9
$ORTHOMODE
 70
     0
  9
$REGENMODE
 70
     1
  9
$FILLMODE
 70
     1
  9
$QTEXTMODE
 70
     0
  9
$MIRRTEXT
 70
     1
  9
$DRAGMODE
 70
     2
  9
$LTSCALE
 40
25.0
  9
$OSMODE
 70
    32
  9
$ATTMODE
 70
     1
  9
$TEXTSIZE
 40
0.1
  9
$TRACEWID
 40
0.3
  9
$TEXTSTYLE
  7
STANDARD
  9
$CLAYER
  8
0
  9
$CELTYPE
  6
BYLAYER
  9
$CECOLOR
 62
   256
  9
$DIMSCALE
 40
1.0
  9
$DIMASZ
 40
3.5
  9
$DIMEXO
 40
0.1
  9
$DIMDLI
 40
7.0
  9
$DIMRND
 40
0.0
  9
$DIMDLE
 40
0.0
  9
$DIMEXE
 40
1.8
  9
$DIMTP
 40
0.0
  9
$DIMTM
 40
0.0
  9
$DIMTXT
 40
3.5
  9
$DIMCEN
 40
1.5
  9
$DIMTSZ
 40
0.0
  9
$DIMTOL
 70
     0
  9
$DIMLIM
 70
     0
  9
$DIMTIH
 70
     0
  9
$DIMTOH
 70
     0
  9
$DIMSE1
 70
     0
  9
$DIMSE2
 70
     0
  9
$DIMTAD
 70
     0
  9
$DIMZIN
 70
     0
  9
$DIMBLK
  1

  9
$DIMASO
 70
     1
  9
$DIMSHO
 70
     0
  9
$DIMPOST
  1

  9
$DIMAPOST
  1

  9
$DIMALT
 70
     0
  9
$DIMALTD
 70
     2
  9
$DIMALTF
 40
25.4
  9
$DIMLFAC
 40
1.0
  9
$DIMTOFL
 70
     0
  9
$DIMTVP
 40
0.0
  9
$DIMTIX
 70
     0
  9
$DIMSOXD
 70
     0
  9
$DIMSAH
 70
     0
  9
$DIMBLK1
  1

  9
$DIMBLK2
  1

  9
$DIMSTYLE
  2
*UNNAMED
  9
$DIMCLRD
 70
     0
  9
$DIMCLRE
 70
     0
  9
$DIMCLRT
 70
     0
  9
$DIMTFAC
 40
1.0
  9
$DIMGAP
 40
0.09
  9
$LUNITS
 70
     2
  9
$LUPREC
 70
     2
  9
$SKETCHINC
 40
1.0
  9
$FILLETRAD
 40
0.0
  9
$AUNITS
 70
     0
  9
$AUPREC
 70
     0
  9
$MENU
  1
acad
  9
$ELEVATION
 40
0.0
  9
$PELEVATION
 40
0.0
  9
$THICKNESS
 40
0.0
  9
$LIMCHECK
 70
     0
  9
$BLIPMODE
 70
     0
  9
$CHAMFERA
 40
0.0
  9
$CHAMFERB
 40
0.0
  9
$SKPOLY
 70
     0
  9
$TDCREATE
 40
2449960.496096065
  9
$TDUPDATE
 40
2450723.462555902
  9
$TDINDWG
 40
0.0187891204
  9
$TDUSRTIMER
 40
0.0187891204
  9
$USRTIMER
 70
     1
  9
$ANGBASE
 50
0.0
  9
$ANGDIR
 70
     0
  9
$PDMODE
 70
     0
  9
$PDSIZE
 40
0.0
  9
$PLINEWID
 40
0.0
  9
$COORDS
 70
     2
  9
$SPLFRAME
 70
     0
  9
$SPLINETYPE
 70
     6
  9
$SPLINESEGS
 70
     8
  9
$ATTDIA
 70
     0
  9
$ATTREQ
 70
     1
  9
$HANDLING
 70
     0
  9
$HANDSEED
  5
0
  9
$SURFTAB1
 70
     6
  9
$SURFTAB2
 70
     6
  9
$SURFTYPE
 70
     6
  9
$SURFU
 70
     6
  9
$SURFV
 70
     6
  9
$UCSNAME
  2

  9
$UCSORG
 10
0.0
 20
0.0
 30
0.0
  9
$UCSXDIR
 10
1.0
 20
0.0
 30
0.0
  9
$UCSYDIR
 10
0.0
 20
1.0
 30
0.0
  9
$PUCSNAME
  2

  9
$PUCSORG
 10
0.0
 20
0.0
 30
0.0
  9
$PUCSXDIR
 10
1.0
 20
0.0
 30
0.0
  9
$PUCSYDIR
 10
0.0
 20
1.0
 30
0.0
  9
$USERI1
 70
     0
  9
$USERI2
 70
     0
  9
$USERI3
 70
     0
  9
$USERI4
 70
     0
  9
$USERI5
 70
     0
  9
$USERR1
 40
0.0
  9
$USERR2
 40
0.0
  9
$USERR3
 40
0.0
  9
$USERR4
 40
0.0
  9
$USERR5
 40
0.0
  9
$WORLDVIEW
 70
     1
  9
$SHADEDGE
 70
     3
  9
$SHADEDIF
 70
    70
  9
$TILEMODE
 70
     1
  9
$MAXACTVP
 70
    16
  9
$PINSBASE
 10
0.0
 20
0.0
 30
0.0
  9
$PLIMCHECK
 70
     0
  9
$PEXTMIN
 10
1.000000E+20
 20
1.000000E+20
 30
1.000000E+20
  9
$PEXTMAX
 10
-1.000000E+20
 20
-1.000000E+20
 30
-1.000000E+20
  9
$PLIMMIN
 10
0.0
 20
0.0
  9
$PLIMMAX
 10
12.0
 20
9.0
  9
$UNITMODE
 70
     0
  9
$VISRETAIN
 70
     0
  9
$PLINEGEN
 70
     0
  9
$PSLTSCALE
 70
     0
  9
$TREEDEPTH
 70
  3020
  9
$DWGCODEPAGE
  3
iso8859-1
  0
ENDSEC
  0
SECTION
  2
TABLES
  0
TABLE
  2
VPORT
 70
     2
  0
VPORT
  2
*ACTIVE
 70
     0
 10
0.0
 20
0.0
 11
1.0
 21
1.0
 12
147.184856
 22
257.120552
 13
0.0
 23
0.0
 14
1.0
 24
1.0
 15
10.0
 25
10.0
 16
0.0
 26
0.0
 36
1.0
 17
0.0
 27
0.0
 37
0.0
 40
14.85
 41
1.611024
 42
50.0
 43
0.0
 44
0.0
 50
0.0
 51
0.0
 71
     0
 72
   100
 73
     1
 74
     0
 75
     0
 76
     0
 77
     0
 78
     0
  0
ENDTAB
  0
TABLE
  2
LTYPE
 70
     1
  0
LTYPE
  2
CONTINUOUS
 70
    64
  3
Solid Line
 72
    65
 73
     0
 40
0.0
  0
ENDTAB
  0
TABLE
  2
LAYER
 70
     5
  0
LAYER
  2
0
 70
    64
 62
     7
  6
CONTINUOUS
  0
LAYER
  2
SECCIO
 70
    64
 62
     7
  6
CONTINUOUS
  0
LAYER
  2
MESURA
 70
    64
 62
     7
  6
CONTINUOUS
  0
LAYER
  2
TEXTEP
 70
    64
 62
     7
  6
CONTINUOUS
  0
LAYER
  2
TEXTEG
 70
    64
 62
     7
  6
CONTINUOUS
  0
ENDTAB
  0
TABLE
  2
STYLE
 70
     2
  0
STYLE
  2
STANDARD
 70
    64
 40
0.0
 41
1.0
 50
0.0
 71
     0
 42
0.1
  3
txt
  4

  0
STYLE
  2
ROMANC
 70
    64
 40
0.0
 41
1.0
 50
0.0
 71
     0
 42
0.1
  3
romanc
  4

  0
ENDTAB
  0
TABLE
  2
VIEW
 70
     0
  0
ENDTAB
  0
TABLE
  2
UCS
 70
     0
  0
ENDTAB
  0
TABLE
  2
APPID
 70
     1
  0
APPID
  2
ACAD
 70
    64
  0
ENDTAB
  0
TABLE
  2
DIMSTYLE
 70
     0
  0
ENDTAB
  0
ENDSEC
  0
SECTION
  2
BLOCKS
  0
ENDSEC
  0
SECTION
  2
ENTITIES
  0
TEXT
  8
0
 10
137.128052
 20
260.781688
 30
0.0
 40
0.3
  1
P = 137.8 dm
  7
ROMANC
  0
TEXT
  8
0
 10
137.13088
 20
261.455187
 30
0.0
 40
0.3
  1
S = 999  dm
  7
ROMANC
  0
LINE
  8
MESURA
 10
138.397909
 20
256.669126
 30
0.0
 11
137.814292
 21
256.669126
 31
0.0
  0
LINE
  8
MESURA
 10
138.897909
 20
256.969126
 30
0.0
 11
137.814292
 21
256.969126
 31
0.0
  0
LINE
  8
MESURA
 10
138.415771
 20
254.869126
 30
0.0
 11
137.796085
 21
254.869126
 31
0.0
  0
LINE
  8
0
 10
135.223006
 20
249.695552
 30
0.0
 11
145.723006
 21
249.695552
 31
0.0
  0
LINE
  8
0
 10
135.223006
 20
264.545552
 30
0.0
 11
145.723006
 21
264.545552
 31
0.0
  0
LINE
  8
0
 10
135.223006
 20
264.545552
 30
0.0
 11
135.223006
 21
249.695552
 31
0.0
  0
LINE
  8
SECCIO
 10
137.897909
 20
257.043866
 30
0.0
 11
137.897909
 21
254.80779
 31
0.0
  0
LINE
  8
MESURA
 10
137.857615
 20
254.834977
 30
0.0
 11
137.941005
 21
254.895587
 31
0.0
  0
TEXT
  8
TEXTEP
 10
137.619397
 20
255.593013
 30
0.0
 40
0.1
  1
1.8
  0
LINE
  8
MESURA
 10
137.940652
 20
256.638318
 30
0.0
 11
137.857262
 21
256.698928
 31
0.0
  0
LINE
  8
MESURA
 10
137.938663
 20
256.937368
 30
0.0
 11
137.855273
 21
256.997978
 31
0.0
  0
TEXT
  8
TEXTEP
 10
137.583692
 20
256.754074
 30
0.0
 40
0.1
  1
0.3
  0
LINE
  8
0
 10
145.723006
 20
264.545552
 30
0.0
 11
145.723006
 21
249.695552
 31
0.0
  0
LINE
  8
SECCIO
 10
138.343945
 20
254.369126
 30
0.0
 11
143.528046
 21
254.369126
 31
0.0
  0
LINE
  8
MESURA
 10
138.415771
 20
254.869126
 30
0.0
 11
138.415771
 21
254.287978
 31
0.0
  0
LINE
  8
MESURA
 10
138.369408
 20
254.334098
 30
0.0
 11
138.452798
 21
254.394707
 31
0.0
  0
TEXT
  8
TEXTEP
 10
140.341865
 20
254.196729
 30
0.0
 40
0.1
  1
4.1
  0
LINE
  8
MESURA
 10
143.415771
 20
255.269126
 30
0.0
 11
143.999744
 21
255.269126
 31
0.0
  0
LINE
  8
MESURA
 10
142.515771
 20
254.869126
 30
0.0
 11
144.039511
 21
254.869126
 31
0.0
  0
TEXT
  8
TEXTEP
 10
142.751919
 20
254.196729
 30
0.0
 40
0.1
  1
0.9
  0
LINE
  8
MESURA
 10
143.415771
 20
255.269126
 30
0.0
 11
143.415771
 21
254.271179
 31
0.0
  0
LINE
  8
MESURA
 10
143.365947
 20
254.335682
 30
0.0
 11
143.449337
 21
254.396292
 31
0.0
  0
LINE
  8
MESURA
 10
142.515771
 20
254.869126
 30
0.0
 11
142.515771
 21
254.270879
 31
0.0
  0
LINE
  8
MESURA
 10
142.477355
 20
254.335682
 30
0.0
 11
142.560745
 21
254.396292
 31
0.0
  0
TEXT
  8
TEXTEP
 10
144.010505
 20
255.044164
 30
0.0
 40
0.1
  1
0.4
  0
LINE
  8
MESURA
 10
143.920333
 20
254.869126
 30
0.0
 11
143.920333
 21
254.783531
 31
0.0
  0
LINE
  8
MESURA
 10
143.920333
 20
255.269126
 30
0.0
 11
143.920333
 21
254.869126
 31
0.0
  0
LINE
  8
MESURA
 10
143.88009
 20
255.238115
 30
0.0
 11
143.96348
 21
255.298725
 31
0.0
  0
LINE
  8
MESURA
 10
143.88009
 20
254.841464
 30
0.0
 11
143.96348
 21
254.902074
 31
0.0
  0
LINE
  8
MESURA
 10
143.920333
 20
255.374527
 30
0.0
 11
143.920333
 21
255.269126
 31
0.0
  0
LINE
  8
MESURA
 10
138.441451
 20
257.136431
 30
0.0
 11
138.358061
 21
257.19704
 31
0.0
  0
LINE
  8
MESURA
 10
138.397909
 20
256.669126
 30
0.0
 11
138.397909
 21
257.253438
 31
0.0
  0
LINE
  8
SECCIO
 10
138.995225
 20
257.171307
 30
0.0
 11
138.321493
 21
257.171307
 31
0.0
  0
LINE
  8
MESURA
 10
138.943192
 20
257.139974
 30
0.0
 11
138.859802
 21
257.200584
 31
0.0
  0
LINE
  8
MESURA
 10
138.897909
 20
256.969126
 30
0.0
 11
138.897909
 21
257.253438
 31
0.0
  0
TEXT
  8
TEXTEP
 10
138.574492
 20
257.271454
 30
0.0
 40
0.1
  1
0.5
  0
TEXT
  8
0
 10
140.638712
 20
261.761103
 30
0.0
 40
0.1
  1
2
  7
ROMANC
  0
LINE
  8
SECCIO
 10
138.343945
 20
253.869126
 30
0.0
 11
143.528046
 21
253.869126
 31
0.0
  0
TEXT
  8
TEXTEP
 10
140.902304
 20
253.721081
 30
0.0
 40
0.1
  1
5.0
  0
LINE
  8
MESURA
 10
138.369408
 20
253.834098
 30
0.0
 11
138.452798
 21
253.894707
 31
0.0
  0
LINE
  8
MESURA
 10
138.415771
 20
254.369126
 30
0.0
 11
138.415771
 21
253.787978
 31
0.0
  0
LINE
  8
MESURA
 10
143.365947
 20
253.835682
 30
0.0
 11
143.449337
 21
253.896292
 31
0.0
  0
LINE
  8
MESURA
 10
143.415771
 20
254.769126
 30
0.0
 11
143.415771
 21
253.771179
 31
0.0
  0
LINE
  8
MESURA
 10
137.897909
 20
254.869126
 30
0.0
 11
137.278223
 21
254.869126
 31
0.0
  0
LINE
  8
MESURA
 10
138.380048
 20
256.969126
 30
0.0
 11
137.29643
 21
256.969126
 31
0.0
  0
LINE
  8
SECCIO
 10
137.380048
 20
257.043866
 30
0.0
 11
137.380048
 21
254.80779
 31
0.0
  0
LINE
  8
MESURA
 10
137.339753
 20
254.834977
 30
0.0
 11
137.423143
 21
254.895587
 31
0.0
  0
LINE
  8
MESURA
 10
137.420801
 20
256.937368
 30
0.0
 11
137.337411
 21
256.997978
 31
0.0
  0
TEXT
  8
TEXTEP
 10
137.093413
 20
255.885241
 30
0.0
 40
0.1
  1
2.1
  0
LINE
  8
SECCIO
 10
143.405771
 20
255.279126
 30
0.0
 11
142.505771
 21
255.279126
 31
0.0
  0
LINE
  8
SECCIO
 10
142.505771
 20
255.279126
 30
0.0
 11
142.505771
 21
254.879126
 31
0.0
  0
LINE
  8
SECCIO
 10
142.505771
 20
254.879126
 30
0.0
 11
138.425771
 21
254.879126
 31
0.0
  0
LINE
  8
SECCIO
 10
138.425771
 20
254.879126
 30
0.0
 11
138.425771
 21
256.663464
 31
0.0
  0
LINE
  8
SECCIO
 10
138.425771
 20
256.663464
 30
0.0
 11
138.918541
 21
256.959126
 31
0.0
  0
LINE
  8
SECCIO
 10
138.918541
 20
256.959126
 30
0.0
 11
142.913155
 21
256.959126
 31
0.0
  0
LINE
  8
SECCIO
 10
142.913155
 20
256.959126
 30
0.0
 11
143.145745
 21
256.828445
 31
0.0
  0
LINE
  8
SECCIO
 10
143.145745
 20
256.828445
 30
0.0
 11
143.405771
 21
256.663625
 31
0.0
  0
LINE
  8
SECCIO
 10
143.405771
 20
256.663625
 30
0.0
 11
143.405771
 21
255.279126
 31
0.0
  0
LINE
  8
SECCIO
 10
143.425771
 20
255.259126
 30
0.0
 11
142.525771
 21
255.259126
 31
0.0
  0
LINE
  8
SECCIO
 10
142.525771
 20
255.259126
 30
0.0
 11
142.525771
 21
254.859126
 31
0.0
  0
LINE
  8
SECCIO
 10
142.525771
 20
254.859126
 30
0.0
 11
138.405771
 21
254.859126
 31
0.0
  0
LINE
  8
SECCIO
 10
138.405771
 20
254.859126
 30
0.0
 11
138.405771
 21
256.674788
 31
0.0
  0
LINE
  8
SECCIO
 10
138.405771
 20
256.674788
 30
0.0
 11
138.913002
 21
256.979126
 31
0.0
  0
LINE
  8
SECCIO
 10
138.913002
 20
256.979126
 30
0.0
 11
142.918388
 21
256.979126
 31
0.0
  0
LINE
  8
SECCIO
 10
142.918388
 20
256.979126
 30
0.0
 11
143.156228
 21
256.845479
 31
0.0
  0
LINE
  8
SECCIO
 10
143.156228
 20
256.845479
 30
0.0
 11
143.425771
 21
256.674627
 31
0.0
  0
LINE
  8
SECCIO
 10
143.425771
 20
256.674627
 30
0.0
 11
143.425771
 21
255.259126
 31
0.0
  0
LINE
  8
SECCIO
 10
143.415771
 20
255.269126
 30
0.0
 11
142.515771
 21
255.269126
 31
0.0
  0
LINE
  8
SECCIO
 10
142.515771
 20
255.269126
 30
0.0
 11
142.515771
 21
254.869126
 31
0.0
  0
LINE
  8
SECCIO
 10
142.515771
 20
254.869126
 30
0.0
 11
138.415771
 21
254.869126
 31
0.0
  0
LINE
  8
SECCIO
 10
138.415771
 20
254.869126
 30
0.0
 11
138.415771
 21
256.669126
 31
0.0
  0
LINE
  8
SECCIO
 10
138.415771
 20
256.669126
 30
0.0
 11
138.915771
 21
256.969126
 31
0.0
  0
LINE
  8
SECCIO
 10
138.915771
 20
256.969126
 30
0.0
 11
142.915771
 21
256.969126
 31
0.0
  0
LINE
  8
SECCIO
 10
142.915771
 20
256.969126
 30
0.0
 11
143.150874
 21
256.837033
 31
0.0
  0
LINE
  8
SECCIO
 10
143.150874
 20
256.837033
 30
0.0
 11
143.415771
 21
256.669126
 31
0.0
  0
LINE
  8
SECCIO
 10
143.415771
 20
256.669126
 30
0.0
 11
143.415771
 21
255.261037
 31
0.0
  0
LINE
  8
SECCIO
 10
143.415771
 20
255.261037
 30
0.0
 11
143.415771
 21
255.269126
 31
0.0
  0
TEXT
  8
0
 10
137.107518
 20
262.809431
 30
0.0
 40
0.3
  1
TIPUS     NT999
  7
ROMANC
  0
TEXT
  8
0
 10
137.10469
 20
262.135933
 30
0.0
 40
0.3
  1
ESCALA     1:50
  7
ROMANC
  0
ENDSEC
  0
EOF
