  0
SECTION
  2
HEADER
  9
$ACADVER
  1
AC1009
  9
$INSBASE
 10
0.0
 20
0.0
 30
0.0
  9
$EXTMIN
 10
281.396000
 20
29.897000
 30
-2147483.648000
  9
$EXTMAX
 10
291.896000
 20
44.747000
 30
0.000000
  9
$LIMMIN
 10
280.396000
 20
28.897000
  9
$LIMMAX
 10
292.896000
 20
43.747000
  9
$ORTHOMODE
 70
     0
  9
$REGENMODE
 70
     1
  9
$FILLMODE
 70
     1
  9
$QTEXTMODE
 70
     0
  9
$MIRRTEXT
 70
     1
  9
$DRAGMODE
 70
     2
  9
$LTSCALE
 40
1.0
  9
$OSMODE
 70
     0
  9
$ATTMODE
 70
     1
  9
$TEXTSIZE
 40
0.2
  9
$TRACEWID
 40
0.05
  9
$TEXTSTYLE
  7
STANDARD
  9
$CLAYER
  8
0
  9
$CELTYPE
  6
BYLAYER
  9
$CECOLOR
 62
   256
  9
$DIMSCALE
 40
1.0
  9
$DIMASZ
 40
0.18
  9
$DIMEXO
 40
0.0625
  9
$DIMDLI
 40
0.38
  9
$DIMRND
 40
0.0
  9
$DIMDLE
 40
0.0
  9
$DIMEXE
 40
0.18
  9
$DIMTP
 40
0.0
  9
$DIMTM
 40
0.0
  9
$DIMTXT
 40
0.18
  9
$DIMCEN
 40
0.09
  9
$DIMTSZ
 40
0.0
  9
$DIMTOL
 70
     0
  9
$DIMLIM
 70
     0
  9
$DIMTIH
 70
     1
  9
$DIMTOH
 70
     1
  9
$DIMSE1
 70
     0
  9
$DIMSE2
 70
     0
  9
$DIMTAD
 70
     0
  9
$DIMZIN
 70
     0
  9
$DIMBLK
  1

  9
$DIMASO
 70
     1
  9
$DIMSHO
 70
     1
  9
$DIMPOST
  1

  9
$DIMAPOST
  1

  9
$DIMALT
 70
     0
  9
$DIMALTD
 70
     2
  9
$DIMALTF
 40
25.4
  9
$DIMLFAC
 40
1.0
  9
$DIMTOFL
 70
     0
  9
$DIMTVP
 40
0.0
  9
$DIMTIX
 70
     0
  9
$DIMSOXD
 70
     0
  9
$DIMSAH
 70
     0
  9
$DIMBLK1
  1

  9
$DIMBLK2
  1

  9
$DIMSTYLE
  2
*UNNAMED
  9
$DIMCLRD
 70
     0
  9
$DIMCLRE
 70
     0
  9
$DIMCLRT
 70
     0
  9
$DIMTFAC
 40
1.0
  9
$DIMGAP
 40
0.09
  9
$LUNITS
 70
     2
  9
$LUPREC
 70
     4
  9
$AXISMODE
 70
     0
  9
$AXISUNIT
 10
0.0
 20
0.0
  9
$SKETCHINC
 40
0.1
  9
$FILLETRAD
 40
0.0
  9
$AUNITS
 70
     0
  9
$AUPREC
 70
     0
  9
$MENU
  1
acad
  9
$ELEVATION
 40
0.0
  9
$PELEVATION
 40
0.0
  9
$THICKNESS
 40
0.0
  9
$LIMCHECK
 70
     0
  9
$BLIPMODE
 70
     1
  9
$CHAMFERA
 40
0.0
  9
$CHAMFERB
 40
0.0
  9
$SKPOLY
 70
     0
  9
$TDCREATE
 40
2448315.373408102
  9
$TDUPDATE
 40
2448315.373408102
  9
$TDINDWG
 40
0.0000000000
  9
$TDUSRTIMER
 40
0.0000000000
  9
$USRTIMER
 70
     1
  9
$ANGBASE
 50
0.0
  9
$ANGDIR
 70
     0
  9
$PDMODE
 70
     0
  9
$PDSIZE
 40
0.0
  9
$PLINEWID
 40
0.0
  9
$COORDS
 70
     0
  9
$SPLFRAME
 70
     0
  9
$SPLINETYPE
 70
     6
  9
$SPLINESEGS
 70
     8
  9
$ATTDIA
 70
     0
  9
$ATTREQ
 70
     1
  9
$HANDLING
 70
     0
  9
$HANDSEED
  5
0
  9
$SURFTAB1
 70
     6
  9
$SURFTAB2
 70
     6
  9
$SURFTYPE
 70
     6
  9
$SURFU
 70
     6
  9
$SURFV
 70
     6
  9
$UCSNAME
  2

  9
$UCSORG
 10
0.0
 20
0.0
 30
0.0
  9
$UCSXDIR
 10
1.0
 20
0.0
 30
0.0
  9
$UCSYDIR
 10
0.0
 20
1.0
 30
0.0
  9
$PUCSNAME
  2

  9
$PUCSORG
 10
0.0
 20
0.0
 30
0.0
  9
$PUCSXDIR
 10
1.0
 20
0.0
 30
0.0
  9
$PUCSYDIR
 10
0.0
 20
1.0
 30
0.0
  9
$USERI1
 70
     0
  9
$USERI2
 70
     0
  9
$USERI3
 70
     0
  9
$USERI4
 70
     0
  9
$USERI5
 70
     0
  9
$USERR1
 40
0.0
  9
$USERR2
 40
0.0
  9
$USERR3
 40
0.0
  9
$USERR4
 40
0.0
  9
$USERR5
 40
0.0
  9
$WORLDVIEW
 70
     1
  9
$SHADEDGE
 70
     3
  9
$SHADEDIF
 70
    70
  9
$TILEMODE
 70
     1
  9
$MAXACTVP
 70
    16
  9
$PINSBASE
 10
0.0
 20
0.0
 30
0.0
  9
$PLIMCHECK
 70
     0
  9
$PEXTMIN
 10
1.000000E+20
 20
1.000000E+20
 30
1.000000E+20
  9
$PEXTMAX
 10
-1.000000E+20
 20
-1.000000E+20
 30
-1.000000E+20
  9
$PLIMMIN
 10
0.0
 20
0.0
  9
$PLIMMAX
 10
12.0
 20
9.0
  9
$UNITMODE
 70
     0
  9
$VISRETAIN
 70
     0
  0
ENDSEC
  0
SECTION
  2
TABLES
  0
TABLE
  2
LTYPE
 70
    1
  0
LTYPE
  2
CONTINUOUS
 70
    64
3
Solid line
 72
    65
 73
0
 40
0.000000
  0
ENDTAB
  0
TABLE
  2
LAYER
 70
    8
  0
LAYER
  2
0
 70
    64
 62
7
  6
CONTINUOUS
  0
LAYER
  2
1
 70
    64
 62
7
  6
CONTINUOUS
  0
LAYER
  2
7
 70
    64
 62
7
  6
CONTINUOUS
  0
LAYER
  2
8
 70
    64
 62
7
  6
CONTINUOUS
  0
LAYER
  2
9
 70
    64
 62
7
  6
CONTINUOUS
  0
LAYER
  2
22
 70
    64
 62
7
  6
CONTINUOUS
  0
LAYER
  2
25
 70
    64
 62
7
  6
CONTINUOUS
  0
LAYER
  2
0
 70
    64
 62
7
  6
CONTINUOUS
  0
ENDTAB
  0
TABLE
  2
STYLE
 70
    1
  0
STYLE
  2
ROMANC
70
     0
 40
0.0
 41
1.0
 50
0.0
 71
     0
 42
0.2
  3
ROMANC
  4

  0
ENDTAB
  0
ENDSEC
  0
SECTION
  2
BLOCKS
  0
ENDSEC
  0
SECTION
  2
ENTITIES
  0
TEXT
  8
0
  6
CONTINUOUS
 40
0.100000
 10
286.909000
 20
41.324000
  1
2
  7
ROMANC
  0
TEXT
  8
0
  6
CONTINUOUS
 40
0.300000
 10
283.926000
 20
41.768000
  1
ESCALA  1:50
  7
ROMANC
  0
POLYLINE
  8
0
  6
CONTINUOUS
 66
     1
 70
     1
  0
VERTEX
  8
0
  6
CONTINUOUS
 10
281.396000
 20
44.747000
  0
VERTEX
  8
0
  6
CONTINUOUS
 10
291.896000
 20
44.747000
  0
VERTEX
  8
0
  6
CONTINUOUS
 10
291.896000
 20
29.897000
  0
VERTEX
  8
0
  6
CONTINUOUS
 10
281.396000
 20
29.897000
  0
SEQEND
  8
0
  0
TEXT
  8
1
  6
CONTINUOUS
 40
0.075000
 10
289.664000
 20
34.791000
  1
2.00
 50
90.000000
  7
ROMANC
  0
LINE
  8
1
  6
CONTINUOUS
 10
289.626000
 20
34.753000
 11
289.626000
 21
33.910000
  0
LINE
  8
1
  6
CONTINUOUS
 10
289.626000
 20
35.065000
 11
289.626000
 21
35.910000
  0
LINE
  8
1
  6
CONTINUOUS
 10
289.645000
 20
33.872000
 11
289.607000
 21
33.948000
  0
LINE
  8
1
  6
CONTINUOUS
 10
289.607000
 20
35.948000
 11
289.645000
 21
35.872000
  0
LINE
  8
1
  6
CONTINUOUS
 10
289.279000
 20
33.910000
 11
289.664000
 21
33.910000
  0
LINE
  8
1
  6
CONTINUOUS
 10
284.679000
 20
35.910000
 11
289.664000
 21
35.910000
  0
LINE
  8
1
  6
CONTINUOUS
 10
288.841000
 20
35.910000
 11
284.641000
 21
35.910000
  0
LINE
  8
1
  6
CONTINUOUS
 10
284.641000
 20
35.910000
 11
284.241000
 21
35.660000
  0
LINE
  8
1
  6
CONTINUOUS
 10
289.241000
 20
33.910000
 11
289.241000
 21
35.660000
  0
LINE
  8
1
  6
CONTINUOUS
 10
289.241000
 20
35.660000
 11
288.841000
 21
35.910000
  0
TEXT
  8
0
  6
CONTINUOUS
 40
0.300000
 10
283.922000
 20
40.529000
  1
P = 136 dm
  7
ROMANC
  0
TEXT
  8
0
  6
CONTINUOUS
 40
0.300000
 10
283.945000
 20
41.099000
  1
S = 990dm
  7
ROMANC
  0
LINE
  8
1
  6
CONTINUOUS
 10
284.241000
 20
35.660000
 11
284.241000
 21
33.910000
  0
LINE
  8
1
  6
CONTINUOUS
 10
284.241000
 20
33.910000
 11
289.241000
 21
33.910000
  0
TEXT
  8
1
  6
CONTINUOUS
 40
0.075000
 10
286.622000
 20
33.634000
  1
5.00
  7
ROMANC
  0
LINE
  8
1
  6
CONTINUOUS
 10
286.584000
 20
33.671000
 11
284.241000
 21
33.671000
  0
LINE
  8
1
  6
CONTINUOUS
 10
286.896000
 20
33.671000
 11
289.241000
 21
33.671000
  0
LINE
  8
1
  6
CONTINUOUS
 10
284.204000
 20
33.652000
 11
284.278000
 21
33.690000
  0
LINE
  8
1
  6
CONTINUOUS
 10
289.278000
 20
33.690000
 11
289.204000
 21
33.652000
  0
LINE
  8
1
  6
CONTINUOUS
 10
284.241000
 20
33.872000
 11
284.241000
 21
33.633000
  0
LINE
  8
1
  6
CONTINUOUS
 10
289.241000
 20
33.872000
 11
289.241000
 21
33.633000
  0
TEXT
  8
1
  6
CONTINUOUS
 40
0.075000
 10
289.494000
 20
35.236000
  1
0.25
 50
90.000000
  7
ROMANC
  0
LINE
  8
1
  6
CONTINUOUS
 10
289.456000
 20
35.586000
 11
289.456000
 21
35.660000
  0
LINE
  8
1
  6
CONTINUOUS
 10
289.456000
 20
36.060000
 11
289.456000
 21
35.910000
  0
LINE
  8
1
  6
CONTINUOUS
 10
289.437000
 20
35.698000
 11
289.475000
 21
35.622000
  0
LINE
  8
1
  6
CONTINUOUS
 10
289.475000
 20
35.872000
 11
289.437000
 21
35.948000
  0
LINE
  8
1
  6
CONTINUOUS
 10
289.279000
 20
35.660000
 11
289.494000
 21
35.660000
  0
LINE
  8
1
  6
CONTINUOUS
 10
289.686000
 20
35.910000
 11
289.418000
 21
35.910000
  0
TEXT
  8
1
  6
CONTINUOUS
 40
0.075000
 10
288.920000
 20
36.062000
  1
0.40
  7
ROMANC
  0
LINE
  8
1
  6
CONTINUOUS
 10
289.391000
 20
36.099000
 11
289.241000
 21
36.099000
  0
LINE
  8
1
  6
CONTINUOUS
 10
288.691000
 20
36.099000
 11
288.841000
 21
36.099000
  0
LINE
  8
1
  6
CONTINUOUS
 10
289.204000
 20
36.080000
 11
289.278000
 21
36.118000
  0
LINE
  8
1
  6
CONTINUOUS
 10
288.878000
 20
36.118000
 11
288.804000
 21
36.080000
  0
LINE
  8
1
  6
CONTINUOUS
 10
289.241000
 20
35.698000
 11
289.241000
 21
36.137000
  0
LINE
  8
1
  6
CONTINUOUS
 10
288.841000
 20
35.948000
 11
288.841000
 21
36.137000
  0
LINE
  8
1
  6
CONTINUOUS
 10
288.843000
 20
35.920000
 11
284.638000
 21
35.920000
  0
LINE
  8
1
  6
CONTINUOUS
 10
288.845000
 20
35.930000
 11
284.636000
 21
35.930000
  0
LINE
  8
1
  6
CONTINUOUS
 10
284.638000
 20
35.920000
 11
284.231000
 21
35.666000
  0
LINE
  8
1
  6
CONTINUOUS
 10
284.636000
 20
35.930000
 11
284.221000
 21
35.670000
  0
LINE
  8
1
  6
CONTINUOUS
 10
284.231000
 20
35.666000
 11
284.231000
 21
33.900000
  0
LINE
  8
1
  6
CONTINUOUS
 10
284.221000
 20
35.670000
 11
284.221000
 21
33.890000
  0
LINE
  8
1
  6
CONTINUOUS
 10
284.231000
 20
33.900000
 11
289.251000
 21
33.900000
  0
LINE
  8
1
  6
CONTINUOUS
 10
284.221000
 20
33.890000
 11
289.261000
 21
33.890000
  0
LINE
  8
1
  6
CONTINUOUS
 10
289.251000
 20
33.900000
 11
289.251000
 21
35.665000
  0
LINE
  8
1
  6
CONTINUOUS
 10
289.261000
 20
33.890000
 11
289.261000
 21
35.670000
  0
LINE
  8
1
  6
CONTINUOUS
 10
289.251000
 20
35.665000
 11
288.843000
 21
35.920000
  0
LINE
  8
1
  6
CONTINUOUS
 10
289.261000
 20
35.670000
 11
288.845000
 21
35.930000
  0
TEXT
  8
0
  6
CONTINUOUS
 40
0.300000
 10
283.926000
 20
42.381000
  1
TIPUS   NT990
  7
ROMANC
  0
ENDSEC
  0
EOF
