  0
SECTION
  2
HEADER
  9
$ACADVER
  1
AC1009
  9
$INSBASE
 10
0.0
 20
0.0
 30
0.0
  9
$EXTMIN
 10
318.829805
 20
29.85788
 30
0.0
  9
$EXTMAX
 10
329.371339
 20
44.72551
 30
0.0
  9
$LIMMIN
 10
0.0
 20
0.0
  9
$LIMMAX
 10
410.0
 20
287.0
  9
$ORTHOMODE
 70
     1
  9
$REGENMODE
 70
     1
  9
$FILLMODE
 70
     1
  9
$QTEXTMODE
 70
     0
  9
$MIRRTEXT
 70
     1
  9
$DRAGMODE
 70
     2
  9
$LTSCALE
 40
25.0
  9
$OSMODE
 70
     0
  9
$ATTMODE
 70
     1
  9
$TEXTSIZE
 40
0.1
  9
$TRACEWID
 40
1.0
  9
$TEXTSTYLE
  7
ROMANC
  9
$CLAYER
  8
0
  9
$CELTYPE
  6
BYLAYER
  9
$CECOLOR
 62
   256
  9
$DIMSCALE
 40
1.5
  9
$DIMASZ
 40
0.1
  9
$DIMEXO
 40
0.01
  9
$DIMDLI
 40
7.0
  9
$DIMRND
 40
0.0
  9
$DIMDLE
 40
0.0
  9
$DIMEXE
 40
0.01
  9
$DIMTP
 40
0.0
  9
$DIMTM
 40
0.0
  9
$DIMTXT
 40
0.05
  9
$DIMCEN
 40
0.0
  9
$DIMTSZ
 40
0.0
  9
$DIMTOL
 70
     0
  9
$DIMLIM
 70
     0
  9
$DIMTIH
 70
     0
  9
$DIMTOH
 70
     0
  9
$DIMSE1
 70
     0
  9
$DIMSE2
 70
     0
  9
$DIMTAD
 70
     1
  9
$DIMZIN
 70
     0
  9
$DIMBLK
  1

  9
$DIMASO
 70
     1
  9
$DIMSHO
 70
     0
  9
$DIMPOST
  1

  9
$DIMAPOST
  1

  9
$DIMALT
 70
     0
  9
$DIMALTD
 70
     2
  9
$DIMALTF
 40
25.4
  9
$DIMLFAC
 40
1.0
  9
$DIMTOFL
 70
     1
  9
$DIMTVP
 40
0.0
  9
$DIMTIX
 70
     1
  9
$DIMSOXD
 70
     0
  9
$DIMSAH
 70
     0
  9
$DIMBLK1
  1

  9
$DIMBLK2
  1

  9
$DIMSTYLE
  2
MERITXELL
  9
$DIMCLRD
 70
     0
  9
$DIMCLRE
 70
     0
  9
$DIMCLRT
 70
     0
  9
$DIMTFAC
 40
70.0
  9
$DIMGAP
 40
0.025
  9
$LUNITS
 70
     2
  9
$LUPREC
 70
     2
  9
$SKETCHINC
 40
1.0
  9
$FILLETRAD
 40
0.0
  9
$AUNITS
 70
     0
  9
$AUPREC
 70
     0
  9
$MENU
  1
acad
  9
$ELEVATION
 40
0.0
  9
$PELEVATION
 40
0.0
  9
$THICKNESS
 40
0.0
  9
$LIMCHECK
 70
     0
  9
$BLIPMODE
 70
     0
  9
$CHAMFERA
 40
0.0
  9
$CHAMFERB
 40
0.0
  9
$SKPOLY
 70
     0
  9
$TDCREATE
 40
2450927.46195
  9
$TDUPDATE
 40
2451050.409785
  9
$TDINDWG
 40
0.051261
  9
$TDUSRTIMER
 40
0.051261
  9
$USRTIMER
 70
     1
  9
$ANGBASE
 50
0.0
  9
$ANGDIR
 70
     0
  9
$PDMODE
 70
     0
  9
$PDSIZE
 40
0.0
  9
$PLINEWID
 40
0.0
  9
$COORDS
 70
     2
  9
$SPLFRAME
 70
     0
  9
$SPLINETYPE
 70
     6
  9
$SPLINESEGS
 70
     8
  9
$ATTDIA
 70
     0
  9
$ATTREQ
 70
     1
  9
$HANDLING
 70
     1
  9
$HANDSEED
  5
3A9
  9
$SURFTAB1
 70
     6
  9
$SURFTAB2
 70
     6
  9
$SURFTYPE
 70
     6
  9
$SURFU
 70
     6
  9
$SURFV
 70
     6
  9
$UCSNAME
  2

  9
$UCSORG
 10
0.0
 20
0.0
 30
0.0
  9
$UCSXDIR
 10
1.0
 20
0.0
 30
0.0
  9
$UCSYDIR
 10
0.0
 20
1.0
 30
0.0
  9
$PUCSNAME
  2

  9
$PUCSORG
 10
0.0
 20
0.0
 30
0.0
  9
$PUCSXDIR
 10
1.0
 20
0.0
 30
0.0
  9
$PUCSYDIR
 10
0.0
 20
1.0
 30
0.0
  9
$USERI1
 70
     0
  9
$USERI2
 70
     0
  9
$USERI3
 70
     0
  9
$USERI4
 70
     0
  9
$USERI5
 70
     0
  9
$USERR1
 40
0.0
  9
$USERR2
 40
0.0
  9
$USERR3
 40
0.0
  9
$USERR4
 40
0.0
  9
$USERR5
 40
0.0
  9
$WORLDVIEW
 70
     1
  9
$SHADEDGE
 70
     3
  9
$SHADEDIF
 70
    70
  9
$TILEMODE
 70
     1
  9
$MAXACTVP
 70
    16
  9
$PLIMCHECK
 70
     0
  9
$PEXTMIN
 10
1.000000E+020
 20
1.000000E+020
 30
1.000000E+020
  9
$PEXTMAX
 10
-1.000000E+020
 20
-1.000000E+020
 30
-1.000000E+020
  9
$PLIMMIN
 10
0.0
 20
0.0
  9
$PLIMMAX
 10
12.0
 20
9.0
  9
$UNITMODE
 70
     0
  9
$VISRETAIN
 70
     0
  9
$PLINEGEN
 70
     0
  9
$PSLTSCALE
 70
     0
  0
ENDSEC
  0
SECTION
  2
TABLES
  0
TABLE
  2
VPORT
 70
     5
  0
VPORT
  2
*ACTIVE
 70
     0
 10
0.0
 20
0.0
 11
1.0
 21
1.0
 12
324.100572
 22
37.291695
 13
0.0
 23
0.0
 14
1.0
 24
1.0
 15
10.0
 25
10.0
 16
0.0
 26
0.0
 36
1.0
 17
0.0
 27
0.0
 37
0.0
 40
14.996726
 41
1.662319
 42
50.0
 43
0.0
 44
0.0
 50
0.0
 51
0.0
 71
     0
 72
   100
 73
     1
 74
     0
 75
     0
 76
     0
 77
     0
 78
     1
  0
ENDTAB
  0
TABLE
  2
LTYPE
 70
     1
  0
LTYPE
  2
CONTINUOUS
 70
     0
  3
Solid line
 72
    65
 73
     0
 40
0.0
  0
ENDTAB
  0
TABLE
  2
LAYER
 70
     2
  0
LAYER
  2
0
 70
     0
 62
     7
  6
CONTINUOUS
  0
LAYER
  2
DEFPOINTS
 70
     0
 62
     7
  6
CONTINUOUS
  0
ENDTAB
  0
TABLE
  2
STYLE
 70
     2
  0
STYLE
  2
STANDARD
 70
     0
 40
0.0
 41
1.0
 50
0.0
 71
     0
 42
0.1
  3
txt
  4

  0
STYLE
  2
ROMANC
 70
     0
 40
0.0
 41
1.0
 50
0.0
 71
     0
 42
0.1
  3
romanc
  4

  0
ENDTAB
  0
TABLE
  2
VIEW
 70
     0
  0
ENDTAB
  0
TABLE
  2
UCS
 70
     0
  0
ENDTAB
  0
TABLE
  2
APPID
 70
     1
  0
APPID
  2
ACAD
 70
     0
  0
ENDTAB
  0
TABLE
  2
DIMSTYLE
 70
     1
  0
DIMSTYLE
  2
MERITXELL
 70
     0
  3

  4

  5

  6

  7

 40
1.5
 41
0.1
 42
0.01
 43
7.0
 44
0.01
 45
0.0
 46
0.0
 47
0.0
 48
0.0
140
0.05
141
0.1
142
0.0
143
25.4
144
1.0
145
0.0
146
70.0
147
0.09
 71
     0
 72
     0
 73
     0
 74
     0
 75
     0
 76
     0
 77
     1
 78
     0
170
     0
171
     2
172
     1
173
     0
174
     1
175
     0
176
     0
177
     0
178
     0
  0
ENDTAB
  0
ENDSEC
  0
SECTION
  2
BLOCKS
  0
BLOCK
  8
0
  2
$MODEL_SPACE
 70
     0
 10
0.0
 20
0.0
 30
0.0
  3
$MODEL_SPACE
  1

  0
ENDBLK
  5
24
  8
0
  0
BLOCK
 67
     1
  8
0
  2
$PAPER_SPACE
 70
     0
 10
0.0
 20
0.0
 30
0.0
  3
$PAPER_SPACE
  1

  0
ENDBLK
  5
22
 67
     1
  8
0
  0
BLOCK
  8
0
  2
*D0
 70
     1
 10
0.0
 20
0.0
 30
0.0
  3
*D0
  1

  0
LINE
  5
169
  8
0
  6
BYBLOCK
 62
     0
 10
322.82643
 20
34.652329
 30
0.0
 11
322.82643
 21
34.144609
 31
0.0
  0
LINE
  5
16A
  8
0
  6
BYBLOCK
 62
     0
 10
322.42643
 20
34.652329
 30
0.0
 11
322.42643
 21
34.144609
 31
0.0
  0
LINE
  5
16B
  8
0
  6
BYBLOCK
 62
     0
 10
322.67643
 20
34.159609
 30
0.0
 11
322.57643
 21
34.159609
 31
0.0
  0
SOLID
  5
16C
  8
0
  6
BYBLOCK
 62
     0
 10
322.67643
 20
34.184609
 30
0.0
 11
322.67643
 21
34.134609
 31
0.0
 12
322.82643
 22
34.159609
 32
0.0
 13
322.82643
 23
34.159609
 33
0.0
  0
SOLID
  5
16D
  8
0
  6
BYBLOCK
 62
     0
 10
322.57643
 20
34.184609
 30
0.0
 11
322.57643
 21
34.134609
 31
0.0
 12
322.42643
 22
34.159609
 32
0.0
 13
322.42643
 23
34.159609
 33
0.0
  0
TEXT
  8
0
  40
0.075
  5
391
  62
0
  72
0
  71
0
 10
322.476
 20
34.1019
 30
0.000000
  1
0.40
  7
ROMANC
  0
POINT
  5
16F
  8
DEFPOINTS
  6
BYBLOCK
 62
     0
 10
322.82643
 20
34.667329
 30
0.0
  0
POINT
  5
170
  8
DEFPOINTS
  6
BYBLOCK
 62
     0
 10
322.42643
 20
34.667329
 30
0.0
  0
POINT
  5
171
  8
DEFPOINTS
  6
BYBLOCK
 62
     0
 10
322.42643
 20
34.159609
 30
0.0
  0
ENDBLK
  5
172
  8
0
  0
BLOCK
  8
0
  2
*D1
 70
     1
 10
0.0
 20
0.0
 30
0.0
  3
*D1
  1

  0
LINE
  5
176
  8
0
  6
BYBLOCK
 62
     0
 10
323.52643
 20
34.652329
 30
0.0
 11
323.52643
 21
34.144609
 31
0.0
  0
LINE
  5
177
  8
0
  6
BYBLOCK
 62
     0
 10
324.42643
 20
34.652329
 30
0.0
 11
324.42643
 21
34.144609
 31
0.0
  0
LINE
  5
178
  8
0
  6
BYBLOCK
 62
     0
 10
323.67643
 20
34.159609
 30
0.0
 11
324.27643
 21
34.159609
 31
0.0
  0
SOLID
  5
179
  8
0
  6
BYBLOCK
 62
     0
 10
323.67643
 20
34.184609
 30
0.0
 11
323.67643
 21
34.134609
 31
0.0
 12
323.52643
 22
34.159609
 32
0.0
 13
323.52643
 23
34.159609
 33
0.0
  0
SOLID
  5
17A
  8
0
  6
BYBLOCK
 62
     0
 10
324.27643
 20
34.184609
 30
0.0
 11
324.27643
 21
34.134609
 31
0.0
 12
324.42643
 22
34.159609
 32
0.0
 13
324.42643
 23
34.159609
 33
0.0
  0
TEXT
  8
0
  40
0.075
  5
392
  62
0
  72
0
  71
0
 10
323.826
 20
34.1019
 30
0.000000
  1
0.90
  7
ROMANC
  0
POINT
  5
17C
  8
DEFPOINTS
  6
BYBLOCK
 62
     0
 10
323.52643
 20
34.667329
 30
0.0
  0
POINT
  5
17D
  8
DEFPOINTS
  6
BYBLOCK
 62
     0
 10
324.42643
 20
34.667329
 30
0.0
  0
POINT
  5
17E
  8
DEFPOINTS
  6
BYBLOCK
 62
     0
 10
324.42643
 20
34.159609
 30
0.0
  0
ENDBLK
  5
17F
  8
0
  0
BLOCK
  8
0
  2
*D2
 70
     1
 10
0.0
 20
0.0
 30
0.0
  3
*D2
  1

  0
LINE
  5
183
  8
0
  6
BYBLOCK
 62
     0
 10
322.82643
 20
34.652329
 30
0.0
 11
322.82643
 21
34.144609
 31
0.0
  0
LINE
  5
184
  8
0
  6
BYBLOCK
 62
     0
 10
323.52643
 20
34.637329
 30
0.0
 11
323.52643
 21
34.144609
 31
0.0
  0
LINE
  5
185
  8
0
  6
BYBLOCK
 62
     0
 10
322.97643
 20
34.159609
 30
0.0
 11
323.37643
 21
34.159609
 31
0.0
  0
SOLID
  5
186
  8
0
  6
BYBLOCK
 62
     0
 10
322.97643
 20
34.184609
 30
0.0
 11
322.97643
 21
34.134609
 31
0.0
 12
322.82643
 22
34.159609
 32
0.0
 13
322.82643
 23
34.159609
 33
0.0
  0
SOLID
  5
187
  8
0
  6
BYBLOCK
 62
     0
 10
323.37643
 20
34.184609
 30
0.0
 11
323.37643
 21
34.134609
 31
0.0
 12
323.52643
 22
34.159609
 32
0.0
 13
323.52643
 23
34.159609
 33
0.0
  0
TEXT
  8
0
  40
0.075
  5
393
  62
0
  72
0
  71
0
 10
323.026
 20
34.1019
 30
0.000000
  1
0.70
  7
ROMANC
  0
POINT
  5
189
  8
DEFPOINTS
  6
BYBLOCK
 62
     0
 10
322.82643
 20
34.667329
 30
0.0
  0
POINT
  5
18A
  8
DEFPOINTS
  6
BYBLOCK
 62
     0
 10
323.52643
 20
34.652329
 30
0.0
  0
POINT
  5
18B
  8
DEFPOINTS
  6
BYBLOCK
 62
     0
 10
323.52643
 20
34.159609
 30
0.0
  0
ENDBLK
  5
18C
  8
0
  0
BLOCK
  8
0
  2
*D3
 70
     1
 10
0.0
 20
0.0
 30
0.0
  3
*D3
  1

  0
LINE
  5
190
  8
0
  6
BYBLOCK
 62
     0
 10
322.42643
 20
34.652329
 30
0.0
 11
322.42643
 21
33.820574
 31
0.0
  0
LINE
  5
191
  8
0
  6
BYBLOCK
 62
     0
 10
324.42643
 20
34.652329
 30
0.0
 11
324.42643
 21
33.820574
 31
0.0
  0
LINE
  5
192
  8
0
  6
BYBLOCK
 62
     0
 10
322.57643
 20
33.835574
 30
0.0
 11
324.27643
 21
33.835574
 31
0.0
  0
SOLID
  5
193
  8
0
  6
BYBLOCK
 62
     0
 10
322.57643
 20
33.860574
 30
0.0
 11
322.57643
 21
33.810574
 31
0.0
 12
322.42643
 22
33.835574
 32
0.0
 13
322.42643
 23
33.835574
 33
0.0
  0
SOLID
  5
194
  8
0
  6
BYBLOCK
 62
     0
 10
324.27643
 20
33.860574
 30
0.0
 11
324.27643
 21
33.810574
 31
0.0
 12
324.42643
 22
33.835574
 32
0.0
 13
324.42643
 23
33.835574
 33
0.0
  0
TEXT
  8
0
  40
0.075
  5
394
  62
0
  72
0
  71
0
 10
323.276
 20
33.7778
 30
0.000000
  1
2.00
  7
ROMANC
  0
POINT
  5
196
  8
DEFPOINTS
  6
BYBLOCK
 62
     0
 10
322.42643
 20
34.667329
 30
0.0
  0
POINT
  5
197
  8
DEFPOINTS
  6
BYBLOCK
 62
     0
 10
324.42643
 20
34.667329
 30
0.0
  0
POINT
  5
198
  8
DEFPOINTS
  6
BYBLOCK
 62
     0
 10
324.42643
 20
33.835574
 30
0.0
  0
ENDBLK
  5
199
  8
0
  0
BLOCK
  8
0
  2
*D4
 70
     1
 10
0.0
 20
0.0
 30
0.0
  3
*D4
  1

  0
LINE
  5
19D
  8
0
  6
BYBLOCK
 62
     0
 10
323.19143
 20
34.437329
 30
0.0
 11
324.825377
 21
34.437329
 31
0.0
  0
LINE
  5
19E
  8
0
  6
BYBLOCK
 62
     0
 10
323.54143
 20
34.667329
 30
0.0
 11
324.825377
 21
34.667329
 31
0.0
  0
LINE
  5
19F
  8
0
  6
BYBLOCK
 62
     0
 10
324.810377
 20
34.287329
 30
0.0
 11
324.810377
 21
34.137329
 31
0.0
  0
LINE
  5
1A0
  8
0
  6
BYBLOCK
 62
     0
 10
324.810377
 20
34.817329
 30
0.0
 11
324.810377
 21
34.967329
 31
0.0
  0
LINE
  5
1A1
  8
0
  6
BYBLOCK
 62
     0
 10
324.810377
 20
34.437329
 30
0.0
 11
324.810377
 21
34.667329
 31
0.0
  0
SOLID
  5
1A2
  8
0
  6
BYBLOCK
 62
     0
 10
324.785377
 20
34.287329
 30
0.0
 11
324.835377
 21
34.287329
 31
0.0
 12
324.810377
 22
34.437329
 32
0.0
 13
324.810377
 23
34.437329
 33
0.0
  0
SOLID
  5
1A3
  8
0
  6
BYBLOCK
 62
     0
 10
324.785377
 20
34.817329
 30
0.0
 11
324.835377
 21
34.817329
 31
0.0
 12
324.810377
 22
34.667329
 32
0.0
 13
324.810377
 23
34.667329
 33
0.0
  0
TEXT
  8
0
  40
0.075
  5
395
  62
0
  72
0
  71
0
 10
324.585
 20
34.4196
 30
0.000000
  1
0.23
  7
ROMANC
  0
POINT
  5
1A5
  8
DEFPOINTS
  6
BYBLOCK
 62
     0
 10
323.17643
 20
34.437329
 30
0.0
  0
POINT
  5
1A6
  8
DEFPOINTS
  6
BYBLOCK
 62
     0
 10
323.52643
 20
34.667329
 30
0.0
  0
POINT
  5
1A7
  8
DEFPOINTS
  6
BYBLOCK
 62
     0
 10
324.810377
 20
34.667329
 30
0.0
  0
ENDBLK
  5
1A8
  8
0
  0
BLOCK
  8
0
  2
*D5
 70
     1
 10
0.0
 20
0.0
 30
0.0
  3
*D5
  1

  0
LINE
  5
1AC
  8
0
  6
BYBLOCK
 62
     0
 10
324.44143
 20
35.717329
 30
0.0
 11
324.825377
 21
35.717329
 31
0.0
  0
LINE
  5
1AD
  8
0
  6
BYBLOCK
 62
     0
 10
324.44143
 20
34.667329
 30
0.0
 11
324.825377
 21
34.667329
 31
0.0
  0
LINE
  5
1AE
  8
0
  6
BYBLOCK
 62
     0
 10
324.810377
 20
35.567329
 30
0.0
 11
324.810377
 21
34.817329
 31
0.0
  0
SOLID
  5
1AF
  8
0
  6
BYBLOCK
 62
     0
 10
324.785377
 20
35.567329
 30
0.0
 11
324.835377
 21
35.567329
 31
0.0
 12
324.810377
 22
35.717329
 32
0.0
 13
324.810377
 23
35.717329
 33
0.0
  0
SOLID
  5
1B0
  8
0
  6
BYBLOCK
 62
     0
 10
324.785377
 20
34.817329
 30
0.0
 11
324.835377
 21
34.817329
 31
0.0
 12
324.810377
 22
34.667329
 32
0.0
 13
324.810377
 23
34.667329
 33
0.0
  0
TEXT
  8
0
  40
0.075
  5
396
  62
0
  72
0
  71
0
 10
324.585
 20
35.0596
 30
0.000000
  1
1.05
  7
ROMANC
  0
POINT
  5
1B2
  8
DEFPOINTS
  6
BYBLOCK
 62
     0
 10
324.42643
 20
35.717329
 30
0.0
  0
POINT
  5
1B3
  8
DEFPOINTS
  6
BYBLOCK
 62
     0
 10
324.42643
 20
34.667329
 30
0.0
  0
POINT
  5
1B4
  8
DEFPOINTS
  6
BYBLOCK
 62
     0
 10
324.810377
 20
34.667329
 30
0.0
  0
ENDBLK
  5
1B5
  8
0
  0
BLOCK
  8
0
  2
*D6
 70
     1
 10
0.0
 20
0.0
 30
0.0
  3
*D6
  1

  0
LINE
  5
1B9
  8
0
  6
BYBLOCK
 62
     0
 10
323.44143
 20
36.237329
 30
0.0
 11
324.825377
 21
36.237329
 31
0.0
  0
LINE
  5
1BA
  8
0
  6
BYBLOCK
 62
     0
 10
324.45643
 20
35.717329
 30
0.0
 11
324.825377
 21
35.717329
 31
0.0
  0
LINE
  5
1BB
  8
0
  6
BYBLOCK
 62
     0
 10
324.810377
 20
36.087329
 30
0.0
 11
324.810377
 21
35.867329
 31
0.0
  0
SOLID
  5
1BC
  8
0
  6
BYBLOCK
 62
     0
 10
324.785377
 20
36.087329
 30
0.0
 11
324.835377
 21
36.087329
 31
0.0
 12
324.810377
 22
36.237329
 32
0.0
 13
324.810377
 23
36.237329
 33
0.0
  0
SOLID
  5
1BD
  8
0
  6
BYBLOCK
 62
     0
 10
324.785377
 20
35.867329
 30
0.0
 11
324.835377
 21
35.867329
 31
0.0
 12
324.810377
 22
35.717329
 32
0.0
 13
324.810377
 23
35.717329
 33
0.0
  0
TEXT
  8
0
  40
0.075
  5
397
  62
0
  72
0
  71
0
 10
324.585
 20
35.8446
 30
0.000000
  1
0.52
  7
ROMANC
  0
POINT
  5
1BF
  8
DEFPOINTS
  6
BYBLOCK
 62
     0
 10
323.42643
 20
36.237329
 30
0.0
  0
POINT
  5
1C0
  8
DEFPOINTS
  6
BYBLOCK
 62
     0
 10
324.44143
 20
35.717329
 30
0.0
  0
POINT
  5
1C1
  8
DEFPOINTS
  6
BYBLOCK
 62
     0
 10
324.810377
 20
35.717329
 30
0.0
  0
ENDBLK
  5
1C2
  8
0
  0
BLOCK
  8
0
  2
*D7
 70
     1
 10
0.0
 20
0.0
 30
0.0
  3
*D7
  1

  0
LINE
  5
1C6
  8
0
  6
BYBLOCK
 62
     0
 10
323.44143
 20
36.237329
 30
0.0
 11
325.172811
 21
36.237329
 31
0.0
  0
LINE
  5
1C7
  8
0
  6
BYBLOCK
 62
     0
 10
323.19143
 20
34.437329
 30
0.0
 11
325.172811
 21
34.437329
 31
0.0
  0
LINE
  5
1C8
  8
0
  6
BYBLOCK
 62
     0
 10
325.157811
 20
36.087329
 30
0.0
 11
325.157811
 21
34.587329
 31
0.0
  0
SOLID
  5
1C9
  8
0
  6
BYBLOCK
 62
     0
 10
325.132811
 20
36.087329
 30
0.0
 11
325.182811
 21
36.087329
 31
0.0
 12
325.157811
 22
36.237329
 32
0.0
 13
325.157811
 23
36.237329
 33
0.0
  0
SOLID
  5
1CA
  8
0
  6
BYBLOCK
 62
     0
 10
325.132811
 20
34.587329
 30
0.0
 11
325.182811
 21
34.587329
 31
0.0
 12
325.157811
 22
34.437329
 32
0.0
 13
325.157811
 23
34.437329
 33
0.0
  0
TEXT
  8
0
  40
0.075
  5
398
  62
0
  72
0
  71
0
 10
324.933
 20
35.2046
 30
0.000000
  1
1.80
  7
ROMANC
  0
POINT
  5
1CC
  8
DEFPOINTS
  6
BYBLOCK
 62
     0
 10
323.42643
 20
36.237329
 30
0.0
  0
POINT
  5
1CD
  8
DEFPOINTS
  6
BYBLOCK
 62
     0
 10
323.17643
 20
34.437329
 30
0.0
  0
POINT
  5
1CE
  8
DEFPOINTS
  6
BYBLOCK
 62
     0
 10
325.157811
 20
34.437329
 30
0.0
  0
ENDBLK
  5
1CF
  8
0
  0
BLOCK
  8
0
  2
*D8
 70
     1
 10
0.0
 20
0.0
 30
0.0
  3
*D8
  1

  0
LINE
  5
21C
  8
0
  6
BYBLOCK
 62
     0
 10
323.149276
 20
34.120129
 30
0.0
 11
323.149276
 21
33.57881
 31
0.0
  0
LINE
  5
21D
  8
0
  6
BYBLOCK
 62
     0
 10
323.449276
 20
34.120129
 30
0.0
 11
323.449276
 21
33.57881
 31
0.0
  0
LINE
  5
21E
  8
0
  6
BYBLOCK
 62
     0
 10
322.999276
 20
33.59381
 30
0.0
 11
322.849276
 21
33.59381
 31
0.0
  0
LINE
  5
21F
  8
0
  6
BYBLOCK
 62
     0
 10
323.599276
 20
33.59381
 30
0.0
 11
323.749276
 21
33.59381
 31
0.0
  0
LINE
  5
220
  8
0
  6
BYBLOCK
 62
     0
 10
323.149276
 20
33.59381
 30
0.0
 11
323.449276
 21
33.59381
 31
0.0
  0
SOLID
  5
221
  8
0
  6
BYBLOCK
 62
     0
 10
322.999276
 20
33.61881
 30
0.0
 11
322.999276
 21
33.56881
 31
0.0
 12
323.149276
 22
33.59381
 32
0.0
 13
323.149276
 23
33.59381
 33
0.0
  0
SOLID
  5
222
  8
0
  6
BYBLOCK
 62
     0
 10
323.599276
 20
33.61881
 30
0.0
 11
323.599276
 21
33.56881
 31
0.0
 12
323.449276
 22
33.59381
 32
0.0
 13
323.449276
 23
33.59381
 33
0.0
  0
TEXT
  8
0
  40
0.075
  5
399
  62
0
  72
0
  71
0
 10
323.149
 20
33.5361
 30
0.000000
  1
0.30
  7
ROMANC
  0
POINT
  5
224
  8
DEFPOINTS
  6
BYBLOCK
 62
     0
 10
323.149276
 20
34.135129
 30
0.0
  0
POINT
  5
225
  8
DEFPOINTS
  6
BYBLOCK
 62
     0
 10
323.449276
 20
34.135129
 30
0.0
  0
POINT
  5
226
  8
DEFPOINTS
  6
BYBLOCK
 62
     0
 10
323.449276
 20
33.59381
 30
0.0
  0
ENDBLK
  5
227
  8
0
  0
BLOCK
  8
0
  2
*D9
 70
     1
 10
0.0
 20
0.0
 30
0.0
  3
*D9
  1

  0
LINE
  5
2FE
  8
0
  6
BYBLOCK
 62
     0
 10
323.149276
 20
34.120129
 30
0.0
 11
323.149276
 21
33.780781
 31
0.0
  0
LINE
  5
2FF
  8
0
  6
BYBLOCK
 62
     0
 10
323.049276
 20
34.120129
 30
0.0
 11
323.049276
 21
33.780781
 31
0.0
  0
LINE
  5
300
  8
0
  6
BYBLOCK
 62
     0
 10
323.299276
 20
33.795781
 30
0.0
 11
323.449276
 21
33.795781
 31
0.0
  0
LINE
  5
301
  8
0
  6
BYBLOCK
 62
     0
 10
322.899276
 20
33.795781
 30
0.0
 11
322.749276
 21
33.795781
 31
0.0
  0
TEXT
  8
0
  40
0.075
  5
39A
  62
0
  72
0
  71
0
 10
322.739
 20
33.7380
 30
0.000000
  1
0.10
  7
ROMANC
  0
LINE
  5
303
  8
0
  6
BYBLOCK
 62
     0
 10
323.149276
 20
33.795781
 30
0.0
 11
323.049276
 21
33.795781
 31
0.0
  0
LINE
  5
304
  8
0
  6
BYBLOCK
 62
     0
 10
323.149276
 20
33.795781
 30
0.0
 11
323.049276
 21
33.795781
 31
0.0
  0
SOLID
  5
305
  8
0
  6
BYBLOCK
 62
     0
 10
323.299276
 20
33.820781
 30
0.0
 11
323.299276
 21
33.770781
 31
0.0
 12
323.149276
 22
33.795781
 32
0.0
 13
323.149276
 23
33.795781
 33
0.0
  0
SOLID
  5
306
  8
0
  6
BYBLOCK
 62
     0
 10
322.899276
 20
33.820781
 30
0.0
 11
322.899276
 21
33.770781
 31
0.0
 12
323.049276
 22
33.795781
 32
0.0
 13
323.049276
 23
33.795781
 33
0.0
  0
POINT
  5
307
  8
DEFPOINTS
  6
BYBLOCK
 62
     0
 10
323.149276
 20
34.135129
 30
0.0
  0
POINT
  5
308
  8
DEFPOINTS
  6
BYBLOCK
 62
     0
 10
323.049276
 20
34.135129
 30
0.0
  0
POINT
  5
309
  8
DEFPOINTS
  6
BYBLOCK
 62
     0
 10
323.049276
 20
33.795781
 30
0.0
  0
ENDBLK
  5
30A
  8
0
  0
BLOCK
  8
0
  2
*D10
 70
     1
 10
0.0
 20
0.0
 30
0.0
  3
*D10
  1

  0
LINE
  5
31A
  8
0
  6
BYBLOCK
 62
     0
 10
323.549276
 20
34.120129
 30
0.0
 11
323.549276
 21
33.780781
 31
0.0
  0
LINE
  5
31B
  8
0
  6
BYBLOCK
 62
     0
 10
323.449276
 20
34.120129
 30
0.0
 11
323.449276
 21
33.780781
 31
0.0
  0
LINE
  5
31C
  8
0
  6
BYBLOCK
 62
     0
 10
323.699276
 20
33.795781
 30
0.0
 11
323.849276
 21
33.795781
 31
0.0
  0
LINE
  5
31D
  8
0
  6
BYBLOCK
 62
     0
 10
323.299276
 20
33.795781
 30
0.0
 11
323.149276
 21
33.795781
 31
0.0
  0
TEXT
  8
0
  40
0.075
  5
39B
  62
0
  72
0
  71
0
 10
323.535
 20
33.7380
 30
0.000000
  1
0.10
  7
ROMANC
  0
LINE
  5
31F
  8
0
  6
BYBLOCK
 62
     0
 10
323.549276
 20
33.795781
 30
0.0
 11
323.449276
 21
33.795781
 31
0.0
  0
LINE
  5
320
  8
0
  6
BYBLOCK
 62
     0
 10
323.549276
 20
33.795781
 30
0.0
 11
323.449276
 21
33.795781
 31
0.0
  0
SOLID
  5
321
  8
0
  6
BYBLOCK
 62
     0
 10
323.699276
 20
33.820781
 30
0.0
 11
323.699276
 21
33.770781
 31
0.0
 12
323.549276
 22
33.795781
 32
0.0
 13
323.549276
 23
33.795781
 33
0.0
  0
SOLID
  5
322
  8
0
  6
BYBLOCK
 62
     0
 10
323.299276
 20
33.820781
 30
0.0
 11
323.299276
 21
33.770781
 31
0.0
 12
323.449276
 22
33.795781
 32
0.0
 13
323.449276
 23
33.795781
 33
0.0
  0
POINT
  5
323
  8
DEFPOINTS
  6
BYBLOCK
 62
     0
 10
323.549276
 20
34.135129
 30
0.0
  0
POINT
  5
324
  8
DEFPOINTS
  6
BYBLOCK
 62
     0
 10
323.449276
 20
34.135129
 30
0.0
  0
POINT
  5
325
  8
DEFPOINTS
  6
BYBLOCK
 62
     0
 10
323.449276
 20
33.795781
 30
0.0
  0
ENDBLK
  5
326
  8
0
  0
BLOCK
  8
0
  2
*D11
 70
     1
 10
0.0
 20
0.0
 30
0.0
  3
*D11
  1

  0
LINE
  5
248
  8
0
  6
BYBLOCK
 62
     0
 10
323.049276
 20
34.120129
 30
0.0
 11
323.049276
 21
33.332658
 31
0.0
  0
LINE
  5
249
  8
0
  6
BYBLOCK
 62
     0
 10
323.549276
 20
34.120129
 30
0.0
 11
323.549276
 21
33.332658
 31
0.0
  0
LINE
  5
24A
  8
0
  6
BYBLOCK
 62
     0
 10
323.199276
 20
33.347658
 30
0.0
 11
323.399276
 21
33.347658
 31
0.0
  0
SOLID
  5
24B
  8
0
  6
BYBLOCK
 62
     0
 10
323.199276
 20
33.372658
 30
0.0
 11
323.199276
 21
33.322658
 31
0.0
 12
323.049276
 22
33.347658
 32
0.0
 13
323.049276
 23
33.347658
 33
0.0
  0
SOLID
  5
24C
  8
0
  6
BYBLOCK
 62
     0
 10
323.399276
 20
33.372658
 30
0.0
 11
323.399276
 21
33.322658
 31
0.0
 12
323.549276
 22
33.347658
 32
0.0
 13
323.549276
 23
33.347658
 33
0.0
  0
TEXT
  8
0
  40
0.075
  5
39C
  62
0
  72
0
  71
0
 10
323.149
 20
33.2899
 30
0.000000
  1
0.50
  7
ROMANC
  0
POINT
  5
24E
  8
DEFPOINTS
  6
BYBLOCK
 62
     0
 10
323.049276
 20
34.135129
 30
0.0
  0
POINT
  5
24F
  8
DEFPOINTS
  6
BYBLOCK
 62
     0
 10
323.549276
 20
34.135129
 30
0.0
  0
POINT
  5
250
  8
DEFPOINTS
  6
BYBLOCK
 62
     0
 10
323.549276
 20
33.347658
 30
0.0
  0
ENDBLK
  5
251
  8
0
  0
BLOCK
  8
0
  2
*D12
 70
     1
 10
0.0
 20
0.0
 30
0.0
  3
*D12
  1

  0
LINE
  5
255
  8
0
  6
BYBLOCK
 62
     0
 10
323.049276
 20
35.135129
 30
0.0
 11
323.549276
 21
35.135129
 31
0.0
  0
SOLID
  5
256
  8
0
  6
BYBLOCK
 62
     0
 10
323.049276
 20
35.160129
 30
0.0
 11
323.049276
 21
35.110129
 31
0.0
 12
322.899276
 22
35.135129
 32
0.0
 13
322.899276
 23
35.135129
 33
0.0
  0
SOLID
  5
257
  8
0
  6
BYBLOCK
 62
     0
 10
323.549276
 20
35.160129
 30
0.0
 11
323.549276
 21
35.110129
 31
0.0
 12
323.699276
 22
35.135129
 32
0.0
 13
323.699276
 23
35.135129
 33
0.0
  0
TEXT
  8
0
  40
0.075
  5
39D
  62
0
  72
0
  71
0
 10
323.149
 20
35.0774
 30
0.000000
  1
0.80
  7
ROMANC
  0
POINT
  5
259
  8
DEFPOINTS
  6
BYBLOCK
 62
     0
 10
322.899276
 20
35.135129
 30
0.0
  0
POINT
  5
25A
  8
DEFPOINTS
  6
BYBLOCK
 62
     0
 10
323.699276
 20
35.135129
 30
0.0
  0
POINT
  5
25B
  8
DEFPOINTS
  6
BYBLOCK
 62
     0
 10
323.699276
 20
35.135129
 30
0.0
  0
ENDBLK
  5
25C
  8
0
  0
BLOCK
  8
0
  2
*D13
 70
     1
 10
0.0
 20
0.0
 30
0.0
  3
*D13
  1

  0
LINE
  5
2D5
  8
0
  6
BYBLOCK
 62
     0
 10
323.314276
 20
33.985129
 30
0.0
 11
324.046844
 21
33.985129
 31
0.0
  0
LINE
  5
2D6
  8
0
  6
BYBLOCK
 62
     0
 10
323.464276
 20
34.135129
 30
0.0
 11
324.046844
 21
34.135129
 31
0.0
  0
LINE
  5
2D7
  8
0
  6
BYBLOCK
 62
     0
 10
324.031844
 20
33.835129
 30
0.0
 11
324.031844
 21
33.685129
 31
0.0
  0
LINE
  5
2D8
  8
0
  6
BYBLOCK
 62
     0
 10
324.031844
 20
34.285129
 30
0.0
 11
324.031844
 21
34.435129
 31
0.0
  0
TEXT
  8
0
  40
0.075
  5
39E
  62
0
  72
0
  71
0
 10
323.807
 20
33.7198
 30
0.000000
  1
0.15
  7
ROMANC
  0
LINE
  5
2DA
  8
0
  6
BYBLOCK
 62
     0
 10
324.031844
 20
33.985129
 30
0.0
 11
324.031844
 21
34.135129
 31
0.0
  0
LINE
  5
2DB
  8
0
  6
BYBLOCK
 62
     0
 10
324.031844
 20
33.985129
 30
0.0
 11
324.031844
 21
34.135129
 31
0.0
  0
SOLID
  5
2DC
  8
0
  6
BYBLOCK
 62
     0
 10
324.006844
 20
33.835129
 30
0.0
 11
324.056844
 21
33.835129
 31
0.0
 12
324.031844
 22
33.985129
 32
0.0
 13
324.031844
 23
33.985129
 33
0.0
  0
SOLID
  5
2DD
  8
0
  6
BYBLOCK
 62
     0
 10
324.006844
 20
34.285129
 30
0.0
 11
324.056844
 21
34.285129
 31
0.0
 12
324.031844
 22
34.135129
 32
0.0
 13
324.031844
 23
34.135129
 33
0.0
  0
POINT
  5
2DE
  8
DEFPOINTS
  6
BYBLOCK
 62
     0
 10
323.299276
 20
33.985129
 30
0.0
  0
POINT
  5
2DF
  8
DEFPOINTS
  6
BYBLOCK
 62
     0
 10
323.449276
 20
34.135129
 30
0.0
  0
POINT
  5
2E0
  8
DEFPOINTS
  6
BYBLOCK
 62
     0
 10
324.031844
 20
34.135129
 30
0.0
  0
ENDBLK
  5
2E1
  8
0
  0
BLOCK
  8
0
  2
*D14
 70
     1
 10
0.0
 20
0.0
 30
0.0
  3
*D14
  1

  0
LINE
  5
2CA
  8
0
  6
BYBLOCK
 62
     0
 10
323.714276
 20
35.135129
 30
0.0
 11
324.046844
 21
35.135129
 31
0.0
  0
LINE
  5
2CB
  8
0
  6
BYBLOCK
 62
     0
 10
323.564276
 20
34.135129
 30
0.0
 11
324.046844
 21
34.135129
 31
0.0
  0
LINE
  5
2CC
  8
0
  6
BYBLOCK
 62
     0
 10
324.031844
 20
34.985129
 30
0.0
 11
324.031844
 21
34.285129
 31
0.0
  0
SOLID
  5
2CD
  8
0
  6
BYBLOCK
 62
     0
 10
324.006844
 20
34.985129
 30
0.0
 11
324.056844
 21
34.985129
 31
0.0
 12
324.031844
 22
35.135129
 32
0.0
 13
324.031844
 23
35.135129
 33
0.0
  0
SOLID
  5
2CE
  8
0
  6
BYBLOCK
 62
     0
 10
324.006844
 20
34.285129
 30
0.0
 11
324.056844
 21
34.285129
 31
0.0
 12
324.031844
 22
34.135129
 32
0.0
 13
324.031844
 23
34.135129
 33
0.0
  0
TEXT
  8
0
  40
0.075
  5
39F
  62
0
  72
0
  71
0
 10
323.807
 20
34.5024
 30
0.000000
  1
1.00
  7
ROMANC
  0
POINT
  5
2D0
  8
DEFPOINTS
  6
BYBLOCK
 62
     0
 10
323.699276
 20
35.135129
 30
0.0
  0
POINT
  5
2D1
  8
DEFPOINTS
  6
BYBLOCK
 62
     0
 10
323.549276
 20
34.135129
 30
0.0
  0
POINT
  5
2D2
  8
DEFPOINTS
  6
BYBLOCK
 62
     0
 10
324.031844
 20
34.135129
 30
0.0
  0
ENDBLK
  5
2D3
  8
0
  0
BLOCK
  8
0
  2
*D15
 70
     1
 10
0.0
 20
0.0
 30
0.0
  3
*D15
  1

  0
LINE
  5
2E4
  8
0
  6
BYBLOCK
 62
     0
 10
323.314276
 20
35.585129
 30
0.0
 11
324.3184
 21
35.585129
 31
0.0
  0
LINE
  5
2E5
  8
0
  6
BYBLOCK
 62
     0
 10
323.314276
 20
33.985129
 30
0.0
 11
324.3184
 21
33.985129
 31
0.0
  0
LINE
  5
2E6
  8
0
  6
BYBLOCK
 62
     0
 10
324.3034
 20
35.435129
 30
0.0
 11
324.3034
 21
34.135129
 31
0.0
  0
SOLID
  5
2E7
  8
0
  6
BYBLOCK
 62
     0
 10
324.2784
 20
35.435129
 30
0.0
 11
324.3284
 21
35.435129
 31
0.0
 12
324.3034
 22
35.585129
 32
0.0
 13
324.3034
 23
35.585129
 33
0.0
  0
SOLID
  5
2E8
  8
0
  6
BYBLOCK
 62
     0
 10
324.2784
 20
34.135129
 30
0.0
 11
324.3284
 21
34.135129
 31
0.0
 12
324.3034
 22
33.985129
 32
0.0
 13
324.3034
 23
33.985129
 33
0.0
  0
TEXT
  8
0
  40
0.075
  5
3A0
  62
0
  72
0
  71
0
 10
324.078
 20
34.6524
 30
0.000000
  1
1.60
  7
ROMANC
  0
POINT
  5
2EA
  8
DEFPOINTS
  6
BYBLOCK
 62
     0
 10
323.299276
 20
35.585129
 30
0.0
  0
POINT
  5
2EB
  8
DEFPOINTS
  6
BYBLOCK
 62
     0
 10
323.299276
 20
33.985129
 30
0.0
  0
POINT
  5
2EC
  8
DEFPOINTS
  6
BYBLOCK
 62
     0
 10
324.3034
 20
33.985129
 30
0.0
  0
ENDBLK
  5
2ED
  8
0
  0
ENDSEC
  0
SECTION
  2
ENTITIES
  0
LINE
  5
27
  8
0
 10
329.348696
 20
29.863623
 30
0.0
 11
329.348696
 21
44.713623
 31
0.0
  0
LINE
  5
28
  8
0
 10
318.848696
 20
44.713623
 30
0.0
 11
318.848696
 21
29.863623
 31
0.0
  0
LINE
  5
29
  8
0
 10
318.848696
 20
29.863623
 30
0.0
 11
329.348696
 21
29.863623
 31
0.0
  0
TEXT
  5
2A
  8
0
 10
321.773149
 20
42.309482
 30
0.0
 40
0.3
  1
TIPUS   NT98B
  7
ROMANC
  0
TEXT
  5
2D
  8
0
 10
321.735227
 20
40.527599
 30
0.0
 40
0.3
  1
P = 40,5 dm
  7
ROMANC
  0
TEXT
  5
2E
  8
0
 10
321.786243
 20
41.225178
 30
0.0
 40
0.3
  1
S = 98 dm
  7
ROMANC
  0
TEXT
  5
2F
  8
0
 10
321.773149
 20
41.823768
 30
0.0
 40
0.3
  1
ESCALA  1:50
  7
ROMANC
  0
TEXT
  5
30
  8
0
 10
324.708877
 20
41.531094
 30
0.0
 40
0.1
  1
2
  7
ROMANC
  0
LINE
  5
31
  8
0
 10
329.348696
 20
44.713623
 30
0.0
 11
318.848696
 21
44.713623
 31
0.0
  0
LINE
  5
32D
  8
0
 10
323.463593
 20
34.120129
 30
0.0
 11
323.562194
 21
34.120129
 31
0.0
  0
LINE
  5
32E
  8
0
 10
323.562194
 20
34.120129
 30
0.0
 11
323.714145
 21
35.133135
 31
0.0
  0
ARC
  5
32F
  8
0
 10
323.299276
 20
35.182352
 30
0.0
 40
0.417778
 50
353.234506
 51
186.765494
  0
LINE
  5
330
  8
0
 10
322.884407
 20
35.133135
 30
0.0
 11
323.036358
 21
34.120129
 31
0.0
  0
LINE
  5
331
  8
0
 10
323.036358
 20
34.120129
 30
0.0
 11
323.134959
 21
34.120129
 31
0.0
  0
ARC
  5
332
  8
0
 10
323.299276
 20
34.135129
 30
0.0
 40
0.165
 50
185.215909
 51
354.784091
  0
LINE
  5
333
  8
0
 10
323.456597
 20
34.127629
 30
0.0
 11
323.555735
 21
34.127629
 31
0.0
  0
LINE
  5
334
  8
0
 10
323.555735
 20
34.127629
 30
0.0
 11
323.70671
 21
35.134133
 31
0.0
  0
ARC
  5
335
  8
0
 10
323.299276
 20
35.182352
 30
0.0
 40
0.410278
 50
353.250569
 51
186.749431
  0
LINE
  5
336
  8
0
 10
322.891842
 20
35.134133
 30
0.0
 11
323.042817
 21
34.127629
 31
0.0
  0
LINE
  5
337
  8
0
 10
323.042817
 20
34.127629
 30
0.0
 11
323.141955
 21
34.127629
 31
0.0
  0
ARC
  5
338
  8
0
 10
323.299276
 20
34.135129
 30
0.0
 40
0.1575
 50
182.729403
 51
357.270597
  0
LINE
  5
339
  8
0
 10
323.449276
 20
34.135129
 30
0.0
 11
323.549276
 21
34.135129
 31
0.0
  0
LINE
  5
33A
  8
0
 10
323.549276
 20
34.135129
 30
0.0
 11
323.699276
 21
35.135129
 31
0.0
  0
ARC
  5
33B
  8
0
 10
323.299276
 20
35.182352
 30
0.0
 40
0.402778
 50
353.267079
 51
186.732921
  0
LINE
  5
33C
  8
0
 10
322.899276
 20
35.135129
 30
0.0
 11
323.049276
 21
34.135129
 31
0.0
  0
LINE
  5
33D
  8
0
 10
323.049276
 20
34.135129
 30
0.0
 11
323.149276
 21
34.135129
 31
0.0
  0
ARC
  5
33E
  8
0
 10
323.299276
 20
34.135129
 30
0.0
 40
0.15
 50
180.0
 51
0.0
  0
LINE
  5
33F
  8
0
  6
BYBLOCK
 62
     0
 10
323.314276
 20
35.585129
 30
0.0
 11
324.3184
 21
35.585129
 31
0.0
  0
LINE
  5
340
  8
0
  6
BYBLOCK
 62
     0
 10
323.314276
 20
33.985129
 30
0.0
 11
324.3184
 21
33.985129
 31
0.0
  0
LINE
  5
341
  8
0
  6
BYBLOCK
 62
     0
 10
324.3034
 20
35.435129
 30
0.0
 11
324.3034
 21
34.135129
 31
0.0
  0
SOLID
  5
342
  8
0
  6
BYBLOCK
 62
     0
 10
324.2784
 20
35.435129
 30
0.0
 11
324.3284
 21
35.435129
 31
0.0
 12
324.3034
 22
35.585129
 32
0.0
 13
324.3034
 23
35.585129
 33
0.0
  0
SOLID
  5
343
  8
0
  6
BYBLOCK
 62
     0
 10
324.2784
 20
34.135129
 30
0.0
 11
324.3284
 21
34.135129
 31
0.0
 12
324.3034
 22
33.985129
 32
0.0
 13
324.3034
 23
33.985129
 33
0.0
  0
TEXT
  8
0
  40
0.075
  5
3A1
  62
0
  72
0
  71
0
 10
324.078
 20
34.6524
 30
0.000000
  1
1.60
  7
ROMANC
  0
POINT
  5
345
  8
DEFPOINTS
  6
BYBLOCK
 62
     0
 10
323.299276
 20
35.585129
 30
0.0
  0
POINT
  5
346
  8
DEFPOINTS
  6
BYBLOCK
 62
     0
 10
323.299276
 20
33.985129
 30
0.0
  0
POINT
  5
347
  8
DEFPOINTS
  6
BYBLOCK
 62
     0
 10
324.3034
 20
33.985129
 30
0.0
  0
LINE
  5
348
  8
0
  6
BYBLOCK
 62
     0
 10
323.714276
 20
35.135129
 30
0.0
 11
324.046844
 21
35.135129
 31
0.0
  0
LINE
  5
349
  8
0
  6
BYBLOCK
 62
     0
 10
323.564276
 20
34.135129
 30
0.0
 11
324.046844
 21
34.135129
 31
0.0
  0
LINE
  5
34A
  8
0
  6
BYBLOCK
 62
     0
 10
324.031844
 20
34.985129
 30
0.0
 11
324.031844
 21
34.285129
 31
0.0
  0
SOLID
  5
34B
  8
0
  6
BYBLOCK
 62
     0
 10
324.006844
 20
34.985129
 30
0.0
 11
324.056844
 21
34.985129
 31
0.0
 12
324.031844
 22
35.135129
 32
0.0
 13
324.031844
 23
35.135129
 33
0.0
  0
SOLID
  5
34C
  8
0
  6
BYBLOCK
 62
     0
 10
324.006844
 20
34.285129
 30
0.0
 11
324.056844
 21
34.285129
 31
0.0
 12
324.031844
 22
34.135129
 32
0.0
 13
324.031844
 23
34.135129
 33
0.0
  0
TEXT
  8
0
  40
0.075
  5
3A2
  62
0
  72
0
  71
0
 10
323.807
 20
34.5024
 30
0.000000
  1
1.00
  7
ROMANC
  0
POINT
  5
34E
  8
DEFPOINTS
  6
BYBLOCK
 62
     0
 10
323.699276
 20
35.135129
 30
0.0
  0
POINT
  5
34F
  8
DEFPOINTS
  6
BYBLOCK
 62
     0
 10
323.549276
 20
34.135129
 30
0.0
  0
POINT
  5
350
  8
DEFPOINTS
  6
BYBLOCK
 62
     0
 10
324.031844
 20
34.135129
 30
0.0
  0
LINE
  5
351
  8
0
  6
BYBLOCK
 62
     0
 10
323.314276
 20
33.985129
 30
0.0
 11
324.046844
 21
33.985129
 31
0.0
  0
LINE
  5
352
  8
0
  6
BYBLOCK
 62
     0
 10
323.464276
 20
34.135129
 30
0.0
 11
324.046844
 21
34.135129
 31
0.0
  0
LINE
  5
353
  8
0
  6
BYBLOCK
 62
     0
 10
324.031844
 20
33.835129
 30
0.0
 11
324.031844
 21
33.685129
 31
0.0
  0
LINE
  5
354
  8
0
  6
BYBLOCK
 62
     0
 10
324.031844
 20
34.285129
 30
0.0
 11
324.031844
 21
34.435129
 31
0.0
  0
TEXT
  8
0
  40
0.075
  5
3A3
  62
0
  72
0
  71
0
 10
323.807
 20
33.7198
 30
0.000000
  1
0.15
  7
ROMANC
  0
LINE
  5
356
  8
0
  6
BYBLOCK
 62
     0
 10
324.031844
 20
33.985129
 30
0.0
 11
324.031844
 21
34.135129
 31
0.0
  0
LINE
  5
357
  8
0
  6
BYBLOCK
 62
     0
 10
324.031844
 20
33.985129
 30
0.0
 11
324.031844
 21
34.135129
 31
0.0
  0
SOLID
  5
358
  8
0
  6
BYBLOCK
 62
     0
 10
324.006844
 20
33.835129
 30
0.0
 11
324.056844
 21
33.835129
 31
0.0
 12
324.031844
 22
33.985129
 32
0.0
 13
324.031844
 23
33.985129
 33
0.0
  0
SOLID
  5
359
  8
0
  6
BYBLOCK
 62
     0
 10
324.006844
 20
34.285129
 30
0.0
 11
324.056844
 21
34.285129
 31
0.0
 12
324.031844
 22
34.135129
 32
0.0
 13
324.031844
 23
34.135129
 33
0.0
  0
POINT
  5
35A
  8
DEFPOINTS
  6
BYBLOCK
 62
     0
 10
323.299276
 20
33.985129
 30
0.0
  0
POINT
  5
35B
  8
DEFPOINTS
  6
BYBLOCK
 62
     0
 10
323.449276
 20
34.135129
 30
0.0
  0
POINT
  5
35C
  8
DEFPOINTS
  6
BYBLOCK
 62
     0
 10
324.031844
 20
34.135129
 30
0.0
  0
LINE
  5
35D
  8
0
  6
BYBLOCK
 62
     0
 10
323.049276
 20
35.135129
 30
0.0
 11
323.549276
 21
35.135129
 31
0.0
  0
SOLID
  5
35E
  8
0
  6
BYBLOCK
 62
     0
 10
323.049276
 20
35.160129
 30
0.0
 11
323.049276
 21
35.110129
 31
0.0
 12
322.899276
 22
35.135129
 32
0.0
 13
322.899276
 23
35.135129
 33
0.0
  0
SOLID
  5
35F
  8
0
  6
BYBLOCK
 62
     0
 10
323.549276
 20
35.160129
 30
0.0
 11
323.549276
 21
35.110129
 31
0.0
 12
323.699276
 22
35.135129
 32
0.0
 13
323.699276
 23
35.135129
 33
0.0
  0
TEXT
  8
0
  40
0.075
  5
3A4
  62
0
  72
0
  71
0
 10
323.149
 20
35.0774
 30
0.000000
  1
0.80
  7
ROMANC
  0
POINT
  5
361
  8
DEFPOINTS
  6
BYBLOCK
 62
     0
 10
322.899276
 20
35.135129
 30
0.0
  0
POINT
  5
362
  8
DEFPOINTS
  6
BYBLOCK
 62
     0
 10
323.699276
 20
35.135129
 30
0.0
  0
POINT
  5
363
  8
DEFPOINTS
  6
BYBLOCK
 62
     0
 10
323.699276
 20
35.135129
 30
0.0
  0
LINE
  5
364
  8
0
  6
BYBLOCK
 62
     0
 10
323.049276
 20
34.120129
 30
0.0
 11
323.049276
 21
33.332658
 31
0.0
  0
LINE
  5
365
  8
0
  6
BYBLOCK
 62
     0
 10
323.549276
 20
34.120129
 30
0.0
 11
323.549276
 21
33.332658
 31
0.0
  0
LINE
  5
366
  8
0
  6
BYBLOCK
 62
     0
 10
323.199276
 20
33.347658
 30
0.0
 11
323.399276
 21
33.347658
 31
0.0
  0
SOLID
  5
367
  8
0
  6
BYBLOCK
 62
     0
 10
323.199276
 20
33.372658
 30
0.0
 11
323.199276
 21
33.322658
 31
0.0
 12
323.049276
 22
33.347658
 32
0.0
 13
323.049276
 23
33.347658
 33
0.0
  0
SOLID
  5
368
  8
0
  6
BYBLOCK
 62
     0
 10
323.399276
 20
33.372658
 30
0.0
 11
323.399276
 21
33.322658
 31
0.0
 12
323.549276
 22
33.347658
 32
0.0
 13
323.549276
 23
33.347658
 33
0.0
  0
TEXT
  8
0
  40
0.075
  5
3A5
  62
0
  72
0
  71
0
 10
323.149
 20
33.2899
 30
0.000000
  1
0.50
  7
ROMANC
  0
POINT
  5
36A
  8
DEFPOINTS
  6
BYBLOCK
 62
     0
 10
323.049276
 20
34.135129
 30
0.0
  0
POINT
  5
36B
  8
DEFPOINTS
  6
BYBLOCK
 62
     0
 10
323.549276
 20
34.135129
 30
0.0
  0
POINT
  5
36C
  8
DEFPOINTS
  6
BYBLOCK
 62
     0
 10
323.549276
 20
33.347658
 30
0.0
  0
LINE
  5
36D
  8
0
  6
BYBLOCK
 62
     0
 10
323.549276
 20
34.120129
 30
0.0
 11
323.549276
 21
33.780781
 31
0.0
  0
LINE
  5
36E
  8
0
  6
BYBLOCK
 62
     0
 10
323.449276
 20
34.120129
 30
0.0
 11
323.449276
 21
33.780781
 31
0.0
  0
LINE
  5
36F
  8
0
  6
BYBLOCK
 62
     0
 10
323.699276
 20
33.795781
 30
0.0
 11
323.849276
 21
33.795781
 31
0.0
  0
LINE
  5
370
  8
0
  6
BYBLOCK
 62
     0
 10
323.299276
 20
33.795781
 30
0.0
 11
323.149276
 21
33.795781
 31
0.0
  0
TEXT
  8
0
  40
0.075
  5
3A6
  62
0
  72
0
  71
0
 10
323.535
 20
33.7380
 30
0.000000
  1
0.10
  7
ROMANC
  0
LINE
  5
372
  8
0
  6
BYBLOCK
 62
     0
 10
323.549276
 20
33.795781
 30
0.0
 11
323.449276
 21
33.795781
 31
0.0
  0
LINE
  5
373
  8
0
  6
BYBLOCK
 62
     0
 10
323.549276
 20
33.795781
 30
0.0
 11
323.449276
 21
33.795781
 31
0.0
  0
SOLID
  5
374
  8
0
  6
BYBLOCK
 62
     0
 10
323.699276
 20
33.820781
 30
0.0
 11
323.699276
 21
33.770781
 31
0.0
 12
323.549276
 22
33.795781
 32
0.0
 13
323.549276
 23
33.795781
 33
0.0
  0
SOLID
  5
375
  8
0
  6
BYBLOCK
 62
     0
 10
323.299276
 20
33.820781
 30
0.0
 11
323.299276
 21
33.770781
 31
0.0
 12
323.449276
 22
33.795781
 32
0.0
 13
323.449276
 23
33.795781
 33
0.0
  0
POINT
  5
376
  8
DEFPOINTS
  6
BYBLOCK
 62
     0
 10
323.549276
 20
34.135129
 30
0.0
  0
POINT
  5
377
  8
DEFPOINTS
  6
BYBLOCK
 62
     0
 10
323.449276
 20
34.135129
 30
0.0
  0
POINT
  5
378
  8
DEFPOINTS
  6
BYBLOCK
 62
     0
 10
323.449276
 20
33.795781
 30
0.0
  0
LINE
  5
379
  8
0
  6
BYBLOCK
 62
     0
 10
323.149276
 20
34.120129
 30
0.0
 11
323.149276
 21
33.780781
 31
0.0
  0
LINE
  5
37A
  8
0
  6
BYBLOCK
 62
     0
 10
323.049276
 20
34.120129
 30
0.0
 11
323.049276
 21
33.780781
 31
0.0
  0
LINE
  5
37B
  8
0
  6
BYBLOCK
 62
     0
 10
323.299276
 20
33.795781
 30
0.0
 11
323.449276
 21
33.795781
 31
0.0
  0
LINE
  5
37C
  8
0
  6
BYBLOCK
 62
     0
 10
322.899276
 20
33.795781
 30
0.0
 11
322.749276
 21
33.795781
 31
0.0
  0
TEXT
  8
0
  40
0.075
  5
3A7
  62
0
  72
0
  71
0
 10
322.739
 20
33.7380
 30
0.000000
  1
0.10
  7
ROMANC
  0
LINE
  5
37E
  8
0
  6
BYBLOCK
 62
     0
 10
323.149276
 20
33.795781
 30
0.0
 11
323.049276
 21
33.795781
 31
0.0
  0
LINE
  5
37F
  8
0
  6
BYBLOCK
 62
     0
 10
323.149276
 20
33.795781
 30
0.0
 11
323.049276
 21
33.795781
 31
0.0
  0
SOLID
  5
380
  8
0
  6
BYBLOCK
 62
     0
 10
323.299276
 20
33.820781
 30
0.0
 11
323.299276
 21
33.770781
 31
0.0
 12
323.149276
 22
33.795781
 32
0.0
 13
323.149276
 23
33.795781
 33
0.0
  0
SOLID
  5
381
  8
0
  6
BYBLOCK
 62
     0
 10
322.899276
 20
33.820781
 30
0.0
 11
322.899276
 21
33.770781
 31
0.0
 12
323.049276
 22
33.795781
 32
0.0
 13
323.049276
 23
33.795781
 33
0.0
  0
POINT
  5
382
  8
DEFPOINTS
  6
BYBLOCK
 62
     0
 10
323.149276
 20
34.135129
 30
0.0
  0
POINT
  5
383
  8
DEFPOINTS
  6
BYBLOCK
 62
     0
 10
323.049276
 20
34.135129
 30
0.0
  0
POINT
  5
384
  8
DEFPOINTS
  6
BYBLOCK
 62
     0
 10
323.049276
 20
33.795781
 30
0.0
  0
LINE
  5
385
  8
0
  6
BYBLOCK
 62
     0
 10
323.149276
 20
34.120129
 30
0.0
 11
323.149276
 21
33.57881
 31
0.0
  0
LINE
  5
386
  8
0
  6
BYBLOCK
 62
     0
 10
323.449276
 20
34.120129
 30
0.0
 11
323.449276
 21
33.57881
 31
0.0
  0
LINE
  5
387
  8
0
  6
BYBLOCK
 62
     0
 10
322.999276
 20
33.59381
 30
0.0
 11
322.849276
 21
33.59381
 31
0.0
  0
LINE
  5
388
  8
0
  6
BYBLOCK
 62
     0
 10
323.599276
 20
33.59381
 30
0.0
 11
323.749276
 21
33.59381
 31
0.0
  0
LINE
  5
389
  8
0
  6
BYBLOCK
 62
     0
 10
323.149276
 20
33.59381
 30
0.0
 11
323.449276
 21
33.59381
 31
0.0
  0
SOLID
  5
38A
  8
0
  6
BYBLOCK
 62
     0
 10
322.999276
 20
33.61881
 30
0.0
 11
322.999276
 21
33.56881
 31
0.0
 12
323.149276
 22
33.59381
 32
0.0
 13
323.149276
 23
33.59381
 33
0.0
  0
SOLID
  5
38B
  8
0
  6
BYBLOCK
 62
     0
 10
323.599276
 20
33.61881
 30
0.0
 11
323.599276
 21
33.56881
 31
0.0
 12
323.449276
 22
33.59381
 32
0.0
 13
323.449276
 23
33.59381
 33
0.0
  0
TEXT
  8
0
  40
0.075
  5
3A8
  62
0
  72
0
  71
0
 10
323.149
 20
33.5361
 30
0.000000
  1
0.30
  7
ROMANC
  0
POINT
  5
38D
  8
DEFPOINTS
  6
BYBLOCK
 62
     0
 10
323.149276
 20
34.135129
 30
0.0
  0
POINT
  5
38E
  8
DEFPOINTS
  6
BYBLOCK
 62
     0
 10
323.449276
 20
34.135129
 30
0.0
  0
POINT
  5
38F
  8
DEFPOINTS
  6
BYBLOCK
 62
     0
 10
323.449276
 20
33.59381
 30
0.0
  0
ENDSEC
  0
EOF
