  0
SECTION
  2
HEADER
  9
$ACADVER
  1
AC1009
  9
$INSBASE
 10
159.402167
 20
232.992026
 30
0.0
  9
$EXTMIN
 10
159.402167
 20
232.992026
 30
0.0
  9
$EXTMAX
 10
169.902167
 20
247.842026
 30
0.0
  9
$LIMMIN
 10
0.0
 20
0.0
  9
$LIMMAX
 10
410.0
 20
287.0
  9
$ORTHOMODE
 70
     0
  9
$REGENMODE
 70
     1
  9
$FILLMODE
 70
     1
  9
$QTEXTMODE
 70
     0
  9
$MIRRTEXT
 70
     1
  9
$DRAGMODE
 70
     2
  9
$LTSCALE
 40
25.0
  9
$OSMODE
 70
    32
  9
$ATTMODE
 70
     1
  9
$TEXTSIZE
 40
0.1
  9
$TRACEWID
 40
0.3
  9
$TEXTSTYLE
  7
STANDARD
  9
$CLAYER
  8
0
  9
$CELTYPE
  6
BYLAYER
  9
$CECOLOR
 62
   256
  9
$DIMSCALE
 40
1.0
  9
$DIMASZ
 40
3.5
  9
$DIMEXO
 40
0.1
  9
$DIMDLI
 40
7.0
  9
$DIMRND
 40
0.0
  9
$DIMDLE
 40
0.0
  9
$DIMEXE
 40
1.8
  9
$DIMTP
 40
0.0
  9
$DIMTM
 40
0.0
  9
$DIMTXT
 40
3.5
  9
$DIMCEN
 40
1.5
  9
$DIMTSZ
 40
0.0
  9
$DIMTOL
 70
     0
  9
$DIMLIM
 70
     0
  9
$DIMTIH
 70
     0
  9
$DIMTOH
 70
     0
  9
$DIMSE1
 70
     0
  9
$DIMSE2
 70
     0
  9
$DIMTAD
 70
     0
  9
$DIMZIN
 70
     0
  9
$DIMBLK
  1

  9
$DIMASO
 70
     1
  9
$DIMSHO
 70
     0
  9
$DIMPOST
  1

  9
$DIMAPOST
  1

  9
$DIMALT
 70
     0
  9
$DIMALTD
 70
     2
  9
$DIMALTF
 40
25.4
  9
$DIMLFAC
 40
1.0
  9
$DIMTOFL
 70
     0
  9
$DIMTVP
 40
0.0
  9
$DIMTIX
 70
     0
  9
$DIMSOXD
 70
     0
  9
$DIMSAH
 70
     0
  9
$DIMBLK1
  1

  9
$DIMBLK2
  1

  9
$DIMSTYLE
  2
*UNNAMED
  9
$DIMCLRD
 70
     0
  9
$DIMCLRE
 70
     0
  9
$DIMCLRT
 70
     0
  9
$DIMTFAC
 40
1.0
  9
$DIMGAP
 40
0.09
  9
$LUNITS
 70
     2
  9
$LUPREC
 70
     2
  9
$SKETCHINC
 40
1.0
  9
$FILLETRAD
 40
0.0
  9
$AUNITS
 70
     0
  9
$AUPREC
 70
     0
  9
$MENU
  1
acad
  9
$ELEVATION
 40
0.0
  9
$PELEVATION
 40
0.0
  9
$THICKNESS
 40
0.0
  9
$LIMCHECK
 70
     0
  9
$BLIPMODE
 70
     0
  9
$CHAMFERA
 40
0.0
  9
$CHAMFERB
 40
0.0
  9
$SKPOLY
 70
     0
  9
$TDCREATE
 40
2449960.541334490
  9
$TDUPDATE
 40
2450724.757763888
  9
$TDINDWG
 40
0.0022339120
  9
$TDUSRTIMER
 40
0.0022339120
  9
$USRTIMER
 70
     1
  9
$ANGBASE
 50
0.0
  9
$ANGDIR
 70
     0
  9
$PDMODE
 70
     0
  9
$PDSIZE
 40
0.0
  9
$PLINEWID
 40
0.0
  9
$COORDS
 70
     2
  9
$SPLFRAME
 70
     0
  9
$SPLINETYPE
 70
     6
  9
$SPLINESEGS
 70
     8
  9
$ATTDIA
 70
     0
  9
$ATTREQ
 70
     1
  9
$HANDLING
 70
     0
  9
$HANDSEED
  5
0
  9
$SURFTAB1
 70
     6
  9
$SURFTAB2
 70
     6
  9
$SURFTYPE
 70
     6
  9
$SURFU
 70
     6
  9
$SURFV
 70
     6
  9
$UCSNAME
  2

  9
$UCSORG
 10
0.0
 20
0.0
 30
0.0
  9
$UCSXDIR
 10
1.0
 20
0.0
 30
0.0
  9
$UCSYDIR
 10
0.0
 20
1.0
 30
0.0
  9
$PUCSNAME
  2

  9
$PUCSORG
 10
0.0
 20
0.0
 30
0.0
  9
$PUCSXDIR
 10
1.0
 20
0.0
 30
0.0
  9
$PUCSYDIR
 10
0.0
 20
1.0
 30
0.0
  9
$USERI1
 70
     0
  9
$USERI2
 70
     0
  9
$USERI3
 70
     0
  9
$USERI4
 70
     0
  9
$USERI5
 70
     0
  9
$USERR1
 40
0.0
  9
$USERR2
 40
0.0
  9
$USERR3
 40
0.0
  9
$USERR4
 40
0.0
  9
$USERR5
 40
0.0
  9
$WORLDVIEW
 70
     1
  9
$SHADEDGE
 70
     3
  9
$SHADEDIF
 70
    70
  9
$TILEMODE
 70
     1
  9
$MAXACTVP
 70
    16
  9
$PINSBASE
 10
0.0
 20
0.0
 30
0.0
  9
$PLIMCHECK
 70
     0
  9
$PEXTMIN
 10
1.000000E+20
 20
1.000000E+20
 30
1.000000E+20
  9
$PEXTMAX
 10
-1.000000E+20
 20
-1.000000E+20
 30
-1.000000E+20
  9
$PLIMMIN
 10
0.0
 20
0.0
  9
$PLIMMAX
 10
12.0
 20
9.0
  9
$UNITMODE
 70
     0
  9
$VISRETAIN
 70
     0
  9
$PLINEGEN
 70
     0
  9
$PSLTSCALE
 70
     0
  9
$TREEDEPTH
 70
  3020
  9
$DWGCODEPAGE
  3
iso8859-1
  0
ENDSEC
  0
SECTION
  2
TABLES
  0
TABLE
  2
VPORT
 70
     1
  0
VPORT
  2
*ACTIVE
 70
     0
 10
0.0
 20
0.0
 11
1.0
 21
1.0
 12
171.364017
 22
240.417026
 13
0.0
 23
0.0
 14
1.0
 24
1.0
 15
10.0
 25
10.0
 16
0.0
 26
0.0
 36
1.0
 17
0.0
 27
0.0
 37
0.0
 40
14.85
 41
1.611024
 42
50.0
 43
0.0
 44
0.0
 50
0.0
 51
0.0
 71
     0
 72
   100
 73
     1
 74
     0
 75
     0
 76
     0
 77
     0
 78
     0
  0
ENDTAB
  0
TABLE
  2
LTYPE
 70
     1
  0
LTYPE
  2
CONTINUOUS
 70
    64
  3
Solid Line
 72
    65
 73
     0
 40
0.0
  0
ENDTAB
  0
TABLE
  2
LAYER
 70
     5
  0
LAYER
  2
0
 70
    64
 62
     7
  6
CONTINUOUS
  0
LAYER
  2
SECCIO
 70
    64
 62
     7
  6
CONTINUOUS
  0
LAYER
  2
MESURA
 70
    64
 62
     7
  6
CONTINUOUS
  0
LAYER
  2
TEXTEP
 70
    64
 62
     7
  6
CONTINUOUS
  0
LAYER
  2
TEXTEG
 70
    64
 62
     7
  6
CONTINUOUS
  0
ENDTAB
  0
TABLE
  2
STYLE
 70
     2
  0
STYLE
  2
STANDARD
 70
    64
 40
0.0
 41
1.0
 50
0.0
 71
     0
 42
0.1
  3
txt
  4

  0
STYLE
  2
ROMANC
 70
    64
 40
0.0
 41
1.0
 50
0.0
 71
     0
 42
0.1
  3
romanc
  4

  0
ENDTAB
  0
TABLE
  2
VIEW
 70
     0
  0
ENDTAB
  0
TABLE
  2
UCS
 70
     0
  0
ENDTAB
  0
TABLE
  2
APPID
 70
     1
  0
APPID
  2
ACAD
 70
    64
  0
ENDTAB
  0
TABLE
  2
DIMSTYLE
 70
     0
  0
ENDTAB
  0
ENDSEC
  0
SECTION
  2
BLOCKS
  0
ENDSEC
  0
SECTION
  2
ENTITIES
  0
TEXT
  8
0
 10
161.282421
 20
244.005097
 30
0.0
 40
0.3
  1
P = 129.7 dm
  7
ROMANC
  0
LINE
  8
0
 10
159.402167
 20
247.842026
 30
0.0
 11
159.402167
 21
232.992026
 31
0.0
  0
LINE
  8
0
 10
169.902167
 20
247.842026
 30
0.0
 11
169.902167
 21
232.992026
 31
0.0
  0
LINE
  8
0
 10
159.402167
 20
232.992026
 30
0.0
 11
169.902167
 21
232.992026
 31
0.0
  0
LINE
  8
SECCIO
 10
161.983688
 20
237.611427
 30
0.0
 11
166.667789
 21
237.611427
 31
0.0
  0
LINE
  8
MESURA
 10
162.009151
 20
237.576398
 30
0.0
 11
162.092541
 21
237.637008
 31
0.0
  0
LINE
  8
MESURA
 10
162.055514
 20
238.111427
 30
0.0
 11
162.055514
 21
237.530278
 31
0.0
  0
LINE
  8
SECCIO
 10
167.055514
 20
240.386166
 30
0.0
 11
167.055514
 21
238.016586
 31
0.0
  0
LINE
  8
MESURA
 10
166.555514
 20
238.111427
 30
0.0
 11
167.179254
 21
238.111427
 31
0.0
  0
LINE
  8
MESURA
 10
166.50569
 20
237.577983
 30
0.0
 11
166.58908
 21
237.638593
 31
0.0
  0
TEXT
  8
TEXTEP
 10
164.300926
 20
237.471049
 30
0.0
 40
0.1
  1
4.5
  0
LINE
  8
MESURA
 10
166.555514
 20
238.111427
 30
0.0
 11
166.555514
 21
237.51348
 31
0.0
  0
LINE
  8
MESURA
 10
167.019833
 20
238.083765
 30
0.0
 11
167.103223
 21
238.144375
 31
0.0
  0
LINE
  8
SECCIO
 10
165.958199
 20
240.513608
 30
0.0
 11
166.63193
 21
240.513608
 31
0.0
  0
LINE
  8
MESURA
 10
166.511973
 20
240.478731
 30
0.0
 11
166.595363
 21
240.539341
 31
0.0
  0
LINE
  8
MESURA
 10
166.555514
 20
240.011427
 30
0.0
 11
167.139132
 21
240.011427
 31
0.0
  0
LINE
  8
MESURA
 10
166.055514
 20
240.311427
 30
0.0
 11
167.139132
 21
240.311427
 31
0.0
  0
LINE
  8
MESURA
 10
166.010232
 20
240.482274
 30
0.0
 11
166.093622
 21
240.542884
 31
0.0
  0
LINE
  8
MESURA
 10
166.555514
 20
240.011427
 30
0.0
 11
166.555514
 21
240.595739
 31
0.0
  0
LINE
  8
MESURA
 10
166.055514
 20
240.311427
 30
0.0
 11
166.055514
 21
240.595739
 31
0.0
  0
TEXT
  8
TEXTEP
 10
166.176617
 20
240.549177
 30
0.0
 40
0.1
  1
0.5
  0
LINE
  8
MESURA
 10
167.014761
 20
240.279669
 30
0.0
 11
167.098151
 21
240.340279
 31
0.0
  0
LINE
  8
MESURA
 10
167.012772
 20
239.980619
 30
0.0
 11
167.096162
 21
240.041229
 31
0.0
  0
TEXT
  8
TEXTEP
 10
167.113528
 20
239.008976
 30
0.0
 40
0.1
  1
1.9
  0
TEXT
  8
TEXTEP
 10
167.104342
 20
240.081024
 30
0.0
 40
0.1
  1
0.3
  0
TEXT
  8
0
 10
161.285249
 20
244.678596
 30
0.0
 40
0.3
  1
S = 975  dm
  7
ROMANC
  0
LINE
  8
0
 10
159.402167
 20
247.842026
 30
0.0
 11
169.902167
 21
247.842026
 31
0.0
  0
TEXT
  8
TEXTEG
 10
161.2483
 20
246.262251
 30
0.0
 40
0.3
  1
TIPUS     NT975
  0
TEXT
  8
TEXTEG
 10
161.298405
 20
245.477936
 30
0.0
 40
0.3
  1
ESCALA    1:50
  0
TEXT
  8
0
 10
164.79308
 20
244.984512
 30
0.0
 40
0.1
  1
2
  7
ROMANC
  0
LINE
  8
SECCIO
 10
167.555514
 20
240.386166
 30
0.0
 11
167.555514
 21
238.016586
 31
0.0
  0
LINE
  8
MESURA
 10
167.055514
 20
238.111427
 30
0.0
 11
167.679254
 21
238.111427
 31
0.0
  0
LINE
  8
MESURA
 10
167.519833
 20
238.083765
 30
0.0
 11
167.603223
 21
238.144375
 31
0.0
  0
LINE
  8
MESURA
 10
166.555514
 20
240.311427
 30
0.0
 11
167.639132
 21
240.311427
 31
0.0
  0
TEXT
  8
TEXTEP
 10
167.613528
 20
239.332266
 30
0.0
 40
0.1
  1
2.2
  0
LINE
  8
MESURA
 10
167.514761
 20
240.279669
 30
0.0
 11
167.598151
 21
240.340279
 31
0.0
  0
LINE
  8
SECCIO
 10
166.545514
 20
240.005765
 30
0.0
 11
166.545514
 21
238.121427
 31
0.0
  0
LINE
  8
SECCIO
 10
166.545514
 20
238.121427
 30
0.0
 11
162.065514
 21
238.121427
 31
0.0
  0
LINE
  8
SECCIO
 10
162.065514
 20
238.121427
 30
0.0
 11
162.065514
 21
240.005765
 31
0.0
  0
LINE
  8
SECCIO
 10
162.065514
 20
240.005765
 30
0.0
 11
162.558284
 21
240.301427
 31
0.0
  0
LINE
  8
SECCIO
 10
162.558284
 20
240.301427
 30
0.0
 11
166.052744
 21
240.301427
 31
0.0
  0
LINE
  8
SECCIO
 10
166.052744
 20
240.301427
 30
0.0
 11
166.545514
 21
240.005765
 31
0.0
  0
LINE
  8
SECCIO
 10
166.565514
 20
240.017089
 30
0.0
 11
166.565514
 21
238.101427
 31
0.0
  0
LINE
  8
SECCIO
 10
166.565514
 20
238.101427
 30
0.0
 11
162.045514
 21
238.101427
 31
0.0
  0
LINE
  8
SECCIO
 10
162.045514
 20
238.101427
 30
0.0
 11
162.045514
 21
240.017089
 31
0.0
  0
LINE
  8
SECCIO
 10
162.045514
 20
240.017089
 30
0.0
 11
162.552744
 21
240.321427
 31
0.0
  0
LINE
  8
SECCIO
 10
162.552744
 20
240.321427
 30
0.0
 11
166.058284
 21
240.321427
 31
0.0
  0
LINE
  8
SECCIO
 10
166.058284
 20
240.321427
 30
0.0
 11
166.565514
 21
240.017089
 31
0.0
  0
LINE
  8
SECCIO
 10
166.555514
 20
240.011427
 30
0.0
 11
166.555514
 21
238.111427
 31
0.0
  0
LINE
  8
SECCIO
 10
166.555514
 20
238.111427
 30
0.0
 11
162.055514
 21
238.111427
 31
0.0
  0
LINE
  8
SECCIO
 10
162.055514
 20
238.111427
 30
0.0
 11
162.055514
 21
240.011427
 31
0.0
  0
LINE
  8
SECCIO
 10
162.055514
 20
240.011427
 30
0.0
 11
162.555514
 21
240.311427
 31
0.0
  0
LINE
  8
SECCIO
 10
162.555514
 20
240.311427
 30
0.0
 11
166.055514
 21
240.311427
 31
0.0
  0
LINE
  8
SECCIO
 10
166.055514
 20
240.311427
 30
0.0
 11
166.555514
 21
240.011427
 31
0.0
  0
ENDSEC
  0
EOF
