  0
SECTION
  2
HEADER
  9
$ACADVER
  1
AC1009
  9
$INSBASE
 10
105.464027
 20
-4.528761
 30
0.0
  9
$EXTMIN
 10
-0.7
 20
0.0
 30
0.0
  9
$EXTMAX
 10
291.895795
 20
44.747444
 30
0.0
  9
$LIMMIN
 10
0.0
 20
0.0
  9
$LIMMAX
 10
410.0
 20
287.0
  9
$ORTHOMODE
 70
     0
  9
$REGENMODE
 70
     1
  9
$FILLMODE
 70
     1
  9
$QTEXTMODE
 70
     0
  9
$MIRRTEXT
 70
     1
  9
$DRAGMODE
 70
     2
  9
$LTSCALE
 40
25.0
  9
$OSMODE
 70
    32
  9
$ATTMODE
 70
     1
  9
$TEXTSIZE
 40
0.1
  9
$TRACEWID
 40
1.0
  9
$TEXTSTYLE
  7
ROMANC
  9
$CLAYER
  8
0
  9
$CELTYPE
  6
BYLAYER
  9
$CECOLOR
 62
   256
  9
$DIMSCALE
 40
1.5
  9
$DIMASZ
 40
0.1
  9
$DIMEXO
 40
0.01
  9
$DIMDLI
 40
7.0
  9
$DIMRND
 40
0.0
  9
$DIMDLE
 40
0.0
  9
$DIMEXE
 40
0.01
  9
$DIMTP
 40
0.0
  9
$DIMTM
 40
0.0
  9
$DIMTXT
 40
0.05
  9
$DIMCEN
 40
0.1
  9
$DIMTSZ
 40
0.0
  9
$DIMTOL
 70
     0
  9
$DIMLIM
 70
     0
  9
$DIMTIH
 70
     0
  9
$DIMTOH
 70
     0
  9
$DIMSE1
 70
     0
  9
$DIMSE2
 70
     0
  9
$DIMTAD
 70
     1
  9
$DIMZIN
 70
     0
  9
$DIMBLK
  1

  9
$DIMASO
 70
     1
  9
$DIMSHO
 70
     0
  9
$DIMPOST
  1

  9
$DIMAPOST
  1

  9
$DIMALT
 70
     0
  9
$DIMALTD
 70
     2
  9
$DIMALTF
 40
25.4
  9
$DIMLFAC
 40
1.0
  9
$DIMTOFL
 70
     1
  9
$DIMTVP
 40
0.0
  9
$DIMTIX
 70
     1
  9
$DIMSOXD
 70
     0
  9
$DIMSAH
 70
     0
  9
$DIMBLK1
  1

  9
$DIMBLK2
  1

  9
$DIMSTYLE
  2
*UNNAMED
  9
$DIMCLRD
 70
     0
  9
$DIMCLRE
 70
     0
  9
$DIMCLRT
 70
     0
  9
$DIMTFAC
 40
70.0
  9
$DIMGAP
 40
0.09
  9
$LUNITS
 70
     2
  9
$LUPREC
 70
     2
  9
$SKETCHINC
 40
1.0
  9
$FILLETRAD
 40
0.0
  9
$AUNITS
 70
     0
  9
$AUPREC
 70
     0
  9
$MENU
  1
acad
  9
$ELEVATION
 40
0.0
  9
$PELEVATION
 40
0.0
  9
$THICKNESS
 40
0.0
  9
$LIMCHECK
 70
     0
  9
$BLIPMODE
 70
     0
  9
$CHAMFERA
 40
0.0
  9
$CHAMFERB
 40
0.0
  9
$SKPOLY
 70
     0
  9
$TDCREATE
 40
2450429.462520255
  9
$TDUPDATE
 40
2450429.476688426
  9
$TDINDWG
 40
0.0090023148
  9
$TDUSRTIMER
 40
0.0090023148
  9
$USRTIMER
 70
     1
  9
$ANGBASE
 50
0.0
  9
$ANGDIR
 70
     0
  9
$PDMODE
 70
     0
  9
$PDSIZE
 40
0.0
  9
$PLINEWID
 40
0.0
  9
$COORDS
 70
     2
  9
$SPLFRAME
 70
     0
  9
$SPLINETYPE
 70
     6
  9
$SPLINESEGS
 70
     8
  9
$ATTDIA
 70
     0
  9
$ATTREQ
 70
     1
  9
$HANDLING
 70
     0
  9
$HANDSEED
  5
0
  9
$SURFTAB1
 70
     6
  9
$SURFTAB2
 70
     6
  9
$SURFTYPE
 70
     6
  9
$SURFU
 70
     6
  9
$SURFV
 70
     6
  9
$UCSNAME
  2

  9
$UCSORG
 10
0.0
 20
0.0
 30
0.0
  9
$UCSXDIR
 10
1.0
 20
0.0
 30
0.0
  9
$UCSYDIR
 10
0.0
 20
1.0
 30
0.0
  9
$PUCSNAME
  2

  9
$PUCSORG
 10
0.0
 20
0.0
 30
0.0
  9
$PUCSXDIR
 10
1.0
 20
0.0
 30
0.0
  9
$PUCSYDIR
 10
0.0
 20
1.0
 30
0.0
  9
$USERI1
 70
     0
  9
$USERI2
 70
     0
  9
$USERI3
 70
     0
  9
$USERI4
 70
     0
  9
$USERI5
 70
     0
  9
$USERR1
 40
0.0
  9
$USERR2
 40
0.0
  9
$USERR3
 40
0.0
  9
$USERR4
 40
0.0
  9
$USERR5
 40
0.0
  9
$WORLDVIEW
 70
     1
  9
$SHADEDGE
 70
     3
  9
$SHADEDIF
 70
    70
  9
$TILEMODE
 70
     1
  9
$MAXACTVP
 70
    16
  9
$PINSBASE
 10
0.0
 20
0.0
 30
0.0
  9
$PLIMCHECK
 70
     0
  9
$PEXTMIN
 10
1.000000E+20
 20
1.000000E+20
 30
1.000000E+20
  9
$PEXTMAX
 10
-1.000000E+20
 20
-1.000000E+20
 30
-1.000000E+20
  9
$PLIMMIN
 10
0.0
 20
0.0
  9
$PLIMMAX
 10
12.0
 20
9.0
  9
$UNITMODE
 70
     0
  9
$VISRETAIN
 70
     0
  9
$PLINEGEN
 70
     0
  9
$PSLTSCALE
 70
     0
  9
$TREEDEPTH
 70
  3020
  9
$DWGCODEPAGE
  3
iso8859-1
  0
ENDSEC
  0
SECTION
  2
TABLES
  0
TABLE
  2
VPORT
 70
     2
  0
VPORT
  2
*ACTIVE
 70
     0
 10
0.0
 20
0.0
 11
1.0
 21
1.0
 12
293.710134
 22
37.322444
 13
0.0
 23
0.0
 14
1.0
 24
1.0
 15
10.0
 25
10.0
 16
0.0
 26
0.0
 36
1.0
 17
0.0
 27
0.0
 37
0.0
 40
14.85
 41
1.658497
 42
50.0
 43
0.0
 44
0.0
 50
0.0
 51
0.0
 71
     0
 72
   100
 73
     1
 74
     0
 75
     0
 76
     0
 77
     0
 78
     1
  0
ENDTAB
  0
TABLE
  2
LTYPE
 70
     1
  0
LTYPE
  2
CONTINUOUS
 70
    64
  3
Solid line
 72
    65
 73
     0
 40
0.0
  0
ENDTAB
  0
TABLE
  2
LAYER
 70
     3
  0
LAYER
  2
0
 70
    64
 62
     7
  6
CONTINUOUS
  0
LAYER
  2
MESURA
 70
     0
 62
     7
  6
CONTINUOUS
  0
LAYER
  2
DEFPOINTS
 70
    64
 62
     7
  6
CONTINUOUS
  0
ENDTAB
  0
TABLE
  2
STYLE
 70
     2
  0
STYLE
  2
STANDARD
 70
     0
 40
0.0
 41
1.0
 50
0.0
 71
     0
 42
0.1
  3
txt
  4

  0
STYLE
  2
ROMANC
 70
    64
 40
0.0
 41
1.0
 50
0.0
 71
     0
 42
0.1
  3
romanc
  4

  0
ENDTAB
  0
TABLE
  2
VIEW
 70
     0
  0
ENDTAB
  0
TABLE
  2
UCS
 70
     0
  0
ENDTAB
  0
TABLE
  2
APPID
 70
     1
  0
APPID
  2
ACAD
 70
    64
  0
ENDTAB
  0
TABLE
  2
DIMSTYLE
 70
     1
  0
DIMSTYLE
  2
SILVIA
 70
     0
  3

  4

  5

  6

  7

 40
1.5
 41
0.1
 42
0.01
 43
7.0
 44
0.01
 45
0.0
 46
0.0
 47
0.0
 48
0.0
140
0.05
141
0.1
142
0.0
143
25.4
144
1.0
145
0.0
146
70.0
147
0.09
 71
     0
 72
     0
 73
     0
 74
     0
 75
     0
 76
     0
 77
     1
 78
     0
170
     0
171
     2
172
     1
173
     0
174
     1
175
     0
176
     0
177
     0
178
     0
  0
ENDTAB
  0
ENDSEC
  0
SECTION
  2
BLOCKS
  0
BLOCK
  8
0
  2
*D2
 70
    65
 10
0.0
 20
0.0
 30
0.0
  3
*D
  0
LINE
  8
0
  6
BYBLOCK
 62
     0
 10
285.35917
 20
34.981832
 30
0.0
 11
285.35917
 21
34.535129
 31
0.0
  0
LINE
  8
0
  6
BYBLOCK
 62
     0
 10
286.10917
 20
34.981832
 30
0.0
 11
286.10917
 21
34.535129
 31
0.0
  0
LINE
  8
0
  6
BYBLOCK
 62
     0
 10
285.20917
 20
34.550129
 30
0.0
 11
285.05917
 21
34.550129
 31
0.0
  0
LINE
  8
0
  6
BYBLOCK
 62
     0
 10
286.25917
 20
34.550129
 30
0.0
 11
286.40917
 21
34.550129
 31
0.0
  0
SOLID
  8
0
  6
BYBLOCK
 62
     0
 10
285.20917
 20
34.575129
 30
0.0
 11
285.20917
 21
34.525129
 31
0.0
 12
285.35917
 22
34.550129
 32
0.0
 13
285.35917
 23
34.550129
 33
0.0
  0
SOLID
  8
0
  6
BYBLOCK
 62
     0
 10
286.25917
 20
34.575129
 30
0.0
 11
286.25917
 21
34.525129
 31
0.0
 12
286.10917
 22
34.550129
 32
0.0
 13
286.10917
 23
34.550129
 33
0.0
  0
LINE
  8
0
  6
BYBLOCK
 62
     0
 10
285.35917
 20
34.550129
 30
0.0
 11
286.10917
 21
34.550129
 31
0.0
  0
TEXT
  8
0
  6
BYBLOCK
 62
     0
 10
285.60917
 20
34.587629
 30
0.0
 40
0.075
  1
0.75
  7
ROMANC
 72
     1
 11
285.73417
 21
34.625129
 31
0.0
 73
     2
  0
POINT
  8
DEFPOINTS
  6
BYBLOCK
 62
     0
 10
285.35917
 20
34.996832
 30
0.0
  0
POINT
  8
DEFPOINTS
  6
BYBLOCK
 62
     0
 10
286.10917
 20
34.996832
 30
0.0
  0
POINT
  8
DEFPOINTS
  6
BYBLOCK
 62
     0
 10
286.10917
 20
34.550129
 30
0.0
  0
ENDBLK
  8
0
  0
BLOCK
  8
0
  2
*D3
 70
    65
 10
0.0
 20
0.0
 30
0.0
  3
*D
  0
LINE
  8
0
  6
BYBLOCK
 62
     0
 10
286.12417
 20
36.206832
 30
0.0
 11
286.485866
 21
36.206832
 31
0.0
  0
LINE
  8
0
  6
BYBLOCK
 62
     0
 10
286.12417
 20
34.996832
 30
0.0
 11
286.485866
 21
34.996832
 31
0.0
  0
LINE
  8
0
  6
BYBLOCK
 62
     0
 10
286.470866
 20
36.056832
 30
0.0
 11
286.470866
 21
35.146832
 31
0.0
  0
SOLID
  8
0
  6
BYBLOCK
 62
     0
 10
286.445866
 20
36.056832
 30
0.0
 11
286.495866
 21
36.056832
 31
0.0
 12
286.470866
 22
36.206832
 32
0.0
 13
286.470866
 23
36.206832
 33
0.0
  0
SOLID
  8
0
  6
BYBLOCK
 62
     0
 10
286.445866
 20
35.146832
 30
0.0
 11
286.495866
 21
35.146832
 31
0.0
 12
286.470866
 22
34.996832
 32
0.0
 13
286.470866
 23
34.996832
 33
0.0
  0
TEXT
  8
0
  6
BYBLOCK
 62
     0
 10
286.433366
 20
35.475046
 30
0.0
 40
0.075
  1
1.21
 50
90.0
  7
ROMANC
 72
     1
 11
286.395866
 21
35.601832
 31
0.0
 73
     2
  0
POINT
  8
DEFPOINTS
  6
BYBLOCK
 62
     0
 10
286.10917
 20
36.206832
 30
0.0
  0
POINT
  8
DEFPOINTS
  6
BYBLOCK
 62
     0
 10
286.10917
 20
34.996832
 30
0.0
  0
POINT
  8
DEFPOINTS
  6
BYBLOCK
 62
     0
 10
286.470866
 20
34.996832
 30
0.0
  0
ENDBLK
  8
0
  0
BLOCK
  8
0
  2
*D4
 70
    65
 10
0.0
 20
0.0
 30
0.0
  3
*D
  0
LINE
  8
0
  6
BYBLOCK
 62
     0
 10
285.65006
 20
34.981832
 30
0.0
 11
285.65006
 21
34.365454
 31
0.0
  0
LINE
  8
0
  6
BYBLOCK
 62
     0
 10
286.35006
 20
34.981832
 30
0.0
 11
286.35006
 21
34.365454
 31
0.0
  0
LINE
  8
0
  6
BYBLOCK
 62
     0
 10
285.50006
 20
34.380454
 30
0.0
 11
285.35006
 21
34.380454
 31
0.0
  0
LINE
  8
0
  6
BYBLOCK
 62
     0
 10
286.50006
 20
34.380454
 30
0.0
 11
286.65006
 21
34.380454
 31
0.0
  0
SOLID
  8
0
  6
BYBLOCK
 62
     0
 10
285.50006
 20
34.405454
 30
0.0
 11
285.50006
 21
34.355454
 31
0.0
 12
285.65006
 22
34.380454
 32
0.0
 13
285.65006
 23
34.380454
 33
0.0
  0
SOLID
  8
0
  6
BYBLOCK
 62
     0
 10
286.50006
 20
34.405454
 30
0.0
 11
286.50006
 21
34.355454
 31
0.0
 12
286.35006
 22
34.380454
 32
0.0
 13
286.35006
 23
34.380454
 33
0.0
  0
LINE
  8
0
  6
BYBLOCK
 62
     0
 10
285.65006
 20
34.380454
 30
0.0
 11
286.35006
 21
34.380454
 31
0.0
  0
TEXT
  8
0
  6
BYBLOCK
 62
     0
 10
285.87506
 20
34.417954
 30
0.0
 40
0.075
  1
0.70
  7
ROMANC
 72
     1
 11
286.00006
 21
34.455454
 31
0.0
 73
     2
  0
POINT
  8
DEFPOINTS
  6
BYBLOCK
 62
     0
 10
285.65006
 20
34.996832
 30
0.0
  0
POINT
  8
DEFPOINTS
  6
BYBLOCK
 62
     0
 10
286.35006
 20
34.996832
 30
0.0
  0
POINT
  8
DEFPOINTS
  6
BYBLOCK
 62
     0
 10
286.35006
 20
34.380454
 30
0.0
  0
ENDBLK
  8
0
  0
BLOCK
  8
0
  2
*D5
 70
    65
 10
0.0
 20
0.0
 30
0.0
  3
*D
  0
LINE
  8
0
  6
BYBLOCK
 62
     0
 10
286.36506
 20
36.346832
 30
0.0
 11
286.760049
 21
36.346832
 31
0.0
  0
LINE
  8
0
  6
BYBLOCK
 62
     0
 10
286.36506
 20
34.996832
 30
0.0
 11
286.760049
 21
34.996832
 31
0.0
  0
LINE
  8
0
  6
BYBLOCK
 62
     0
 10
286.745049
 20
36.196832
 30
0.0
 11
286.745049
 21
35.146832
 31
0.0
  0
SOLID
  8
0
  6
BYBLOCK
 62
     0
 10
286.720049
 20
36.196832
 30
0.0
 11
286.770049
 21
36.196832
 31
0.0
 12
286.745049
 22
36.346832
 32
0.0
 13
286.745049
 23
36.346832
 33
0.0
  0
SOLID
  8
0
  6
BYBLOCK
 62
     0
 10
286.720049
 20
35.146832
 30
0.0
 11
286.770049
 21
35.146832
 31
0.0
 12
286.745049
 22
34.996832
 32
0.0
 13
286.745049
 23
34.996832
 33
0.0
  0
TEXT
  8
0
  6
BYBLOCK
 62
     0
 10
286.707549
 20
35.541475
 30
0.0
 40
0.075
  1
1.35
 50
90.0
  7
ROMANC
 72
     1
 11
286.670049
 21
35.671832
 31
0.0
 73
     2
  0
POINT
  8
DEFPOINTS
  6
BYBLOCK
 62
     0
 10
286.35006
 20
36.346832
 30
0.0
  0
POINT
  8
DEFPOINTS
  6
BYBLOCK
 62
     0
 10
286.35006
 20
34.996832
 30
0.0
  0
POINT
  8
DEFPOINTS
  6
BYBLOCK
 62
     0
 10
286.745049
 20
34.996832
 30
0.0
  0
ENDBLK
  8
0
  0
ENDSEC
  0
SECTION
  2
ENTITIES
  0
POLYLINE
  8
0
 66
     1
 10
0.0
 20
0.0
 30
0.0
  0
VERTEX
  8
0
 10
108.040631
 20
-16.548467
 30
0.0
 42
0.063415
  0
SEQEND
  8
0
  0
POLYLINE
  8
0
 66
     1
 10
0.0
 20
0.0
 30
0.0
  0
VERTEX
  8
0
 10
86.286488
 20
-15.036857
 30
0.0
 42
0.22708
  0
SEQEND
  8
0
  0
POLYLINE
  8
0
 66
     1
 10
0.0
 20
0.0
 30
0.0
  0
VERTEX
  8
0
 10
72.351426
 20
-14.976331
 30
0.0
 42
0.089446
  0
SEQEND
  8
0
  0
POLYLINE
  8
0
 66
     1
 10
0.0
 20
0.0
 30
0.0
  0
VERTEX
  8
0
 10
97.210524
 20
16.938509
 30
0.0
 42
0.05817
  0
SEQEND
  8
0
  0
POLYLINE
  8
0
 66
     1
 10
0.0
 20
0.0
 30
0.0
  0
VERTEX
  8
0
 10
121.196188
 20
17.602271
 30
0.0
 42
0.156162
  0
SEQEND
  8
0
  0
POLYLINE
  8
0
 66
     1
 10
0.0
 20
0.0
 30
0.0
  0
VERTEX
  8
0
 10
119.340696
 20
34.532686
 30
0.0
 42
0.283046
  0
SEQEND
  8
0
  0
POLYLINE
  8
0
 66
     1
 10
0.0
 20
0.0
 30
0.0
  0
VERTEX
  8
0
 10
157.359637
 20
32.54887
 30
0.0
 42
0.269827
  0
SEQEND
  8
0
  0
POLYLINE
  8
0
 66
     1
 10
0.0
 20
0.0
 30
0.0
  0
VERTEX
  8
0
 10
156.169702
 20
18.299763
 30
0.0
 42
0.066056
  0
SEQEND
  8
0
  0
POLYLINE
  8
0
 66
     1
 10
0.0
 20
0.0
 30
0.0
  0
VERTEX
  8
0
 10
168.512554
 20
1.430566
 30
0.0
 42
0.148501
  0
SEQEND
  8
0
  0
POLYLINE
  8
0
 66
     1
 10
0.0
 20
0.0
 30
0.0
  0
VERTEX
  8
0
 10
168.689549
 20
33.579487
 30
0.0
 42
0.08626
  0
SEQEND
  8
0
  0
POLYLINE
  8
0
 66
     1
 10
0.0
 20
0.0
 30
0.0
  0
VERTEX
  8
0
 10
180.209617
 20
34.197499
 30
0.0
 42
0.059446
  0
SEQEND
  8
0
  0
POLYLINE
  8
0
 66
     1
 10
0.0
 20
0.0
 30
0.0
  0
VERTEX
  8
0
 10
168.213495
 20
14.734069
 30
0.0
 42
0.06661
  0
SEQEND
  8
0
  0
POLYLINE
  8
0
 66
     1
 10
0.0
 20
0.0
 30
0.0
  0
VERTEX
  8
0
 10
180.09759
 20
16.643931
 30
0.0
 42
0.165716
  0
SEQEND
  8
0
  0
POLYLINE
  8
0
 66
     1
 10
0.0
 20
0.0
 30
0.0
  0
VERTEX
  8
0
 10
180.349774
 20
-12.199421
 30
0.0
 42
0.098491
  0
SEQEND
  8
0
  0
POLYLINE
  8
0
 66
     1
 10
0.0
 20
0.0
 30
0.0
  0
VERTEX
  8
0
 10
194.593929
 20
-14.402211
 30
0.0
 42
0.098491
  0
SEQEND
  8
0
  0
POLYLINE
  8
0
 66
     1
 10
0.0
 20
0.0
 30
0.0
  0
VERTEX
  8
0
 10
192.091391
 20
16.821986
 30
0.0
 42
0.129253
  0
SEQEND
  8
0
  0
LINE
  8
0
 10
291.895795
 20
29.897444
 30
0.0
 11
291.895795
 21
44.747444
 31
0.0
  0
TEXT
  8
0
 10
283.887846
 20
40.56142
 30
0.0
 40
0.3
  1
P = 41 dm
  7
ROMANC
  0
LINE
  8
0
 10
281.395795
 20
44.747444
 30
0.0
 11
281.395795
 21
29.897444
 31
0.0
  0
LINE
  8
0
 10
281.395795
 20
29.897444
 30
0.0
 11
291.895795
 21
29.897444
 31
0.0
  0
LINE
  8
0
 10
291.895795
 20
44.747444
 30
0.0
 11
281.395795
 21
44.747444
 31
0.0
  0
TEXT
  8
0
 10
287.122271
 20
41.564915
 30
0.0
 40
0.1
  1
2
  7
ROMANC
  0
TEXT
  8
0
 10
283.925768
 20
41.857589
 30
0.0
 40
0.3
  1
ESCALA  1:50
  7
ROMANC
  0
TEXT
  8
0
 10
283.925768
 20
42.343303
 30
0.0
 40
0.3
  1
TIPUS   NT94
  7
ROMANC
  0
TEXT
  8
0
 10
283.938862
 20
41.258999
 30
0.0
 40
0.3
  1
S=  94 dm
  7
ROMANC
  0
POLYLINE
  8
0
 66
     1
 10
0.0
 20
0.0
 30
0.0
  0
VERTEX
  8
0
 10
285.562002
 20
36.153868
 30
0.0
 42
0.113017
  0
SEQEND
  8
0
  0
POLYLINE
  8
0
 66
     1
 10
0.0
 20
0.0
 30
0.0
  0
VERTEX
  8
0
 10
285.562002
 20
36.153868
 30
0.0
 42
0.098491
  0
SEQEND
  8
0
  0
LINE
  8
0
 10
286.34006
 20
35.006832
 30
0.0
 11
286.34006
 21
36.336832
 31
0.0
  0
LINE
  8
0
 10
286.34006
 20
36.336832
 30
0.0
 11
285.66006
 21
36.336832
 31
0.0
  0
LINE
  8
0
 10
285.66006
 20
36.336832
 30
0.0
 11
285.66006
 21
35.006832
 31
0.0
  0
LINE
  8
0
 10
285.66006
 20
35.006832
 30
0.0
 11
286.34006
 21
35.006832
 31
0.0
  0
LINE
  8
0
 10
286.36006
 20
34.986832
 30
0.0
 11
286.36006
 21
36.356832
 31
0.0
  0
LINE
  8
0
 10
286.36006
 20
36.356832
 30
0.0
 11
285.64006
 21
36.356832
 31
0.0
  0
LINE
  8
0
 10
285.64006
 20
36.356832
 30
0.0
 11
285.64006
 21
34.986832
 31
0.0
  0
LINE
  8
0
 10
285.64006
 20
34.986832
 30
0.0
 11
286.36006
 21
34.986832
 31
0.0
  0
LINE
  8
0
  6
BYBLOCK
 62
     0
 10
286.36506
 20
36.346832
 30
0.0
 11
286.760049
 21
36.346832
 31
0.0
  0
LINE
  8
0
  6
BYBLOCK
 62
     0
 10
286.36506
 20
34.996832
 30
0.0
 11
286.760049
 21
34.996832
 31
0.0
  0
LINE
  8
0
  6
BYBLOCK
 62
     0
 10
286.745049
 20
36.196832
 30
0.0
 11
286.745049
 21
35.146832
 31
0.0
  0
SOLID
  8
0
  6
BYBLOCK
 62
     0
 10
286.720049
 20
36.196832
 30
0.0
 11
286.770049
 21
36.196832
 31
0.0
 12
286.745049
 22
36.346832
 32
0.0
 13
286.745049
 23
36.346832
 33
0.0
  0
SOLID
  8
0
  6
BYBLOCK
 62
     0
 10
286.720049
 20
35.146832
 30
0.0
 11
286.770049
 21
35.146832
 31
0.0
 12
286.745049
 22
34.996832
 32
0.0
 13
286.745049
 23
34.996832
 33
0.0
  0
TEXT
  8
0
  6
BYBLOCK
 62
     0
 10
286.707549
 20
35.541475
 30
0.0
 40
0.075
  1
1.35
 50
90.0
  7
ROMANC
 72
     1
 11
286.670049
 21
35.671832
 31
0.0
 73
     2
  0
POINT
  8
DEFPOINTS
  6
BYBLOCK
 62
     0
 10
286.35006
 20
36.346832
 30
0.0
  0
POINT
  8
DEFPOINTS
  6
BYBLOCK
 62
     0
 10
286.35006
 20
34.996832
 30
0.0
  0
POINT
  8
DEFPOINTS
  6
BYBLOCK
 62
     0
 10
286.745049
 20
34.996832
 30
0.0
  0
LINE
  8
0
  6
BYBLOCK
 62
     0
 10
285.65006
 20
34.981832
 30
0.0
 11
285.65006
 21
34.365454
 31
0.0
  0
LINE
  8
0
  6
BYBLOCK
 62
     0
 10
286.35006
 20
34.981832
 30
0.0
 11
286.35006
 21
34.365454
 31
0.0
  0
LINE
  8
0
  6
BYBLOCK
 62
     0
 10
285.50006
 20
34.380454
 30
0.0
 11
285.35006
 21
34.380454
 31
0.0
  0
LINE
  8
0
  6
BYBLOCK
 62
     0
 10
286.50006
 20
34.380454
 30
0.0
 11
286.65006
 21
34.380454
 31
0.0
  0
SOLID
  8
0
  6
BYBLOCK
 62
     0
 10
285.50006
 20
34.405454
 30
0.0
 11
285.50006
 21
34.355454
 31
0.0
 12
285.65006
 22
34.380454
 32
0.0
 13
285.65006
 23
34.380454
 33
0.0
  0
SOLID
  8
0
  6
BYBLOCK
 62
     0
 10
286.50006
 20
34.405454
 30
0.0
 11
286.50006
 21
34.355454
 31
0.0
 12
286.35006
 22
34.380454
 32
0.0
 13
286.35006
 23
34.380454
 33
0.0
  0
LINE
  8
0
  6
BYBLOCK
 62
     0
 10
285.65006
 20
34.380454
 30
0.0
 11
286.35006
 21
34.380454
 31
0.0
  0
TEXT
  8
0
  6
BYBLOCK
 62
     0
 10
285.87506
 20
34.417954
 30
0.0
 40
0.075
  1
0.70
  7
ROMANC
 72
     1
 11
286.00006
 21
34.455454
 31
0.0
 73
     2
  0
POINT
  8
DEFPOINTS
  6
BYBLOCK
 62
     0
 10
285.65006
 20
34.996832
 30
0.0
  0
POINT
  8
DEFPOINTS
  6
BYBLOCK
 62
     0
 10
286.35006
 20
34.996832
 30
0.0
  0
POINT
  8
DEFPOINTS
  6
BYBLOCK
 62
     0
 10
286.35006
 20
34.380454
 30
0.0
  0
LINE
  8
0
 10
286.35006
 20
34.996832
 30
0.0
 11
286.35006
 21
36.346832
 31
0.0
  0
LINE
  8
0
 10
286.35006
 20
36.346832
 30
0.0
 11
285.65006
 21
36.346832
 31
0.0
  0
LINE
  8
0
 10
285.65006
 20
36.346832
 30
0.0
 11
285.65006
 21
34.996832
 31
0.0
  0
LINE
  8
0
 10
285.65006
 20
34.996832
 30
0.0
 11
286.35006
 21
34.996832
 31
0.0
  0
ENDSEC
  0
EOF
