  0
SECTION
  2
HEADER
  9
$ACADVER
  1
AC1009
  9
$INSBASE
 10
128.609689
 20
-20.833084
 30
0.0
  9
$EXTMIN
 10
128.609689
 20
-20.833084
 30
0.0
  9
$EXTMAX
 10
139.109689
 20
-5.983084
 30
0.0
  9
$LIMMIN
 10
0.0
 20
0.0
  9
$LIMMAX
 10
410.0
 20
287.0
  9
$ORTHOMODE
 70
     1
  9
$REGENMODE
 70
     1
  9
$FILLMODE
 70
     1
  9
$QTEXTMODE
 70
     0
  9
$MIRRTEXT
 70
     1
  9
$DRAGMODE
 70
     2
  9
$LTSCALE
 40
25.0
  9
$OSMODE
 70
    32
  9
$ATTMODE
 70
     1
  9
$TEXTSIZE
 40
0.1
  9
$TRACEWID
 40
1.0
  9
$TEXTSTYLE
  7
ROMANC
  9
$CLAYER
  8
0
  9
$CELTYPE
  6
BYLAYER
  9
$CECOLOR
 62
   256
  9
$DIMSCALE
 40
0.0
  9
$DIMASZ
 40
0.0
  9
$DIMEXO
 40
0.1
  9
$DIMDLI
 40
7.0
  9
$DIMRND
 40
0.0
  9
$DIMDLE
 40
0.0
  9
$DIMEXE
 40
1.8
  9
$DIMTP
 40
0.0
  9
$DIMTM
 40
0.0
  9
$DIMTXT
 40
0.03
  9
$DIMCEN
 40
1.5
  9
$DIMTSZ
 40
1.0
  9
$DIMTOL
 70
     0
  9
$DIMLIM
 70
     0
  9
$DIMTIH
 70
     0
  9
$DIMTOH
 70
     0
  9
$DIMSE1
 70
     0
  9
$DIMSE2
 70
     0
  9
$DIMTAD
 70
     0
  9
$DIMZIN
 70
     0
  9
$DIMBLK
  1

  9
$DIMASO
 70
     1
  9
$DIMSHO
 70
     0
  9
$DIMPOST
  1

  9
$DIMAPOST
  1

  9
$DIMALT
 70
     0
  9
$DIMALTD
 70
     2
  9
$DIMALTF
 40
25.4
  9
$DIMLFAC
 40
1.0
  9
$DIMTOFL
 70
     1
  9
$DIMTVP
 40
0.0
  9
$DIMTIX
 70
     1
  9
$DIMSOXD
 70
     0
  9
$DIMSAH
 70
     0
  9
$DIMBLK1
  1

  9
$DIMBLK2
  1

  9
$DIMSTYLE
  2
*UNNAMED
  9
$DIMCLRD
 70
     0
  9
$DIMCLRE
 70
     0
  9
$DIMCLRT
 70
     0
  9
$DIMTFAC
 40
116.666667
  9
$DIMGAP
 40
0.09
  9
$LUNITS
 70
     2
  9
$LUPREC
 70
     2
  9
$SKETCHINC
 40
1.0
  9
$FILLETRAD
 40
0.0
  9
$AUNITS
 70
     0
  9
$AUPREC
 70
     0
  9
$MENU
  1
acad
  9
$ELEVATION
 40
0.0
  9
$PELEVATION
 40
0.0
  9
$THICKNESS
 40
0.0
  9
$LIMCHECK
 70
     0
  9
$BLIPMODE
 70
     0
  9
$CHAMFERA
 40
0.0
  9
$CHAMFERB
 40
0.0
  9
$SKPOLY
 70
     0
  9
$TDCREATE
 40
2449967.672495833
  9
$TDUPDATE
 40
2450723.400826968
  9
$TDINDWG
 40
0.0025180556
  9
$TDUSRTIMER
 40
0.0025180556
  9
$USRTIMER
 70
     1
  9
$ANGBASE
 50
0.0
  9
$ANGDIR
 70
     0
  9
$PDMODE
 70
     0
  9
$PDSIZE
 40
0.0
  9
$PLINEWID
 40
0.0
  9
$COORDS
 70
     0
  9
$SPLFRAME
 70
     0
  9
$SPLINETYPE
 70
     6
  9
$SPLINESEGS
 70
     8
  9
$ATTDIA
 70
     0
  9
$ATTREQ
 70
     1
  9
$HANDLING
 70
     0
  9
$HANDSEED
  5
0
  9
$SURFTAB1
 70
     6
  9
$SURFTAB2
 70
     6
  9
$SURFTYPE
 70
     6
  9
$SURFU
 70
     6
  9
$SURFV
 70
     6
  9
$UCSNAME
  2

  9
$UCSORG
 10
0.0
 20
0.0
 30
0.0
  9
$UCSXDIR
 10
1.0
 20
0.0
 30
0.0
  9
$UCSYDIR
 10
0.0
 20
1.0
 30
0.0
  9
$PUCSNAME
  2

  9
$PUCSORG
 10
0.0
 20
0.0
 30
0.0
  9
$PUCSXDIR
 10
1.0
 20
0.0
 30
0.0
  9
$PUCSYDIR
 10
0.0
 20
1.0
 30
0.0
  9
$USERI1
 70
     0
  9
$USERI2
 70
     0
  9
$USERI3
 70
     0
  9
$USERI4
 70
     0
  9
$USERI5
 70
     0
  9
$USERR1
 40
0.0
  9
$USERR2
 40
0.0
  9
$USERR3
 40
0.0
  9
$USERR4
 40
0.0
  9
$USERR5
 40
0.0
  9
$WORLDVIEW
 70
     1
  9
$SHADEDGE
 70
     3
  9
$SHADEDIF
 70
    70
  9
$TILEMODE
 70
     1
  9
$MAXACTVP
 70
    16
  9
$PINSBASE
 10
0.0
 20
0.0
 30
0.0
  9
$PLIMCHECK
 70
     0
  9
$PEXTMIN
 10
1.000000E+20
 20
1.000000E+20
 30
1.000000E+20
  9
$PEXTMAX
 10
-1.000000E+20
 20
-1.000000E+20
 30
-1.000000E+20
  9
$PLIMMIN
 10
0.0
 20
0.0
  9
$PLIMMAX
 10
12.0
 20
9.0
  9
$UNITMODE
 70
     0
  9
$VISRETAIN
 70
     0
  9
$PLINEGEN
 70
     0
  9
$PSLTSCALE
 70
     0
  9
$TREEDEPTH
 70
  3020
  9
$DWGCODEPAGE
  3
iso8859-1
  0
ENDSEC
  0
SECTION
  2
TABLES
  0
TABLE
  2
VPORT
 70
     1
  0
VPORT
  2
*ACTIVE
 70
     0
 10
0.0
 20
0.0
 11
1.0
 21
1.0
 12
140.571539
 22
-13.408084
 13
0.0
 23
0.0
 14
1.0
 24
1.0
 15
10.0
 25
10.0
 16
0.0
 26
0.0
 36
1.0
 17
0.0
 27
0.0
 37
0.0
 40
14.85
 41
1.611024
 42
50.0
 43
0.0
 44
0.0
 50
0.0
 51
0.0
 71
     0
 72
   100
 73
     1
 74
     0
 75
     0
 76
     0
 77
     0
 78
     1
  0
ENDTAB
  0
TABLE
  2
LTYPE
 70
     1
  0
LTYPE
  2
CONTINUOUS
 70
    64
  3
Solid line
 72
    65
 73
     0
 40
0.0
  0
ENDTAB
  0
TABLE
  2
LAYER
 70
     1
  0
LAYER
  2
0
 70
    64
 62
     7
  6
CONTINUOUS
  0
ENDTAB
  0
TABLE
  2
STYLE
 70
     2
  0
STYLE
  2
STANDARD
 70
     0
 40
0.0
 41
1.0
 50
0.0
 71
     0
 42
0.1
  3
txt
  4

  0
STYLE
  2
ROMANC
 70
    64
 40
0.0
 41
1.0
 50
0.0
 71
     0
 42
0.1
  3
romanc
  4

  0
ENDTAB
  0
TABLE
  2
VIEW
 70
     0
  0
ENDTAB
  0
TABLE
  2
UCS
 70
     0
  0
ENDTAB
  0
TABLE
  2
APPID
 70
     1
  0
APPID
  2
ACAD
 70
    64
  0
ENDTAB
  0
TABLE
  2
DIMSTYLE
 70
     0
  0
ENDTAB
  0
ENDSEC
  0
SECTION
  2
BLOCKS
  0
ENDSEC
  0
SECTION
  2
ENTITIES
  0
LINE
  8
0
 10
139.109689
 20
-20.833084
 30
0.0
 11
139.109689
 21
-5.983084
 31
0.0
  0
LINE
  8
0
 10
128.609689
 20
-5.983084
 30
0.0
 11
128.609689
 21
-20.833084
 31
0.0
  0
LINE
  8
0
 10
131.298397
 20
-15.036764
 30
0.0
 11
136.312437
 21
-15.036764
 31
0.0
  0
LINE
  8
0
 10
128.609689
 20
-20.833084
 30
0.0
 11
139.109689
 21
-20.833084
 31
0.0
  0
TEXT
  8
0
 10
133.443067
 20
-15.24634
 30
0.0
 40
0.1
  1
4.4
  7
ROMANC
  0
LINE
  8
0
 10
131.281761
 20
-15.059058
 30
0.0
 11
131.343122
 21
-15.003279
 31
0.0
  0
LINE
  8
0
 10
131.298397
 20
-15.036764
 30
0.0
 11
131.298397
 21
-14.677202
 31
0.0
  0
LINE
  8
0
 10
136.279884
 20
-15.066356
 30
0.0
 11
136.341245
 21
-15.010577
 31
0.0
  0
LINE
  8
0
 10
136.310564
 20
-14.472362
 30
0.0
 11
136.312437
 21
-15.036764
 31
0.0
  0
LINE
  8
0
 10
135.704891
 20
-14.722362
 30
0.0
 11
135.704891
 21
-15.036764
 31
0.0
  0
LINE
  8
0
 10
135.67421
 20
-15.064653
 30
0.0
 11
135.735571
 21
-15.008874
 31
0.0
  0
TEXT
  8
0
 10
135.941893
 20
-15.24634
 30
0.0
 40
0.1
  1
0.6
  7
ROMANC
  0
LINE
  8
0
 10
137.059139
 20
-14.503533
 30
0.0
 11
137.1205
 21
-14.447754
 31
0.0
  0
LINE
  8
0
 10
137.057604
 20
-12.805116
 30
0.0
 11
137.118965
 21
-12.749336
 31
0.0
  0
LINE
  8
0
 10
136.304824
 20
-12.777202
 30
0.0
 11
137.088284
 21
-12.777226
 31
0.0
  0
LINE
  8
0
 10
136.304824
 20
-14.477202
 30
0.0
 11
137.08982
 21
-14.475643
 31
0.0
  0
LINE
  8
0
 10
137.088284
 20
-12.777226
 30
0.0
 11
137.088313
 21
-14.680256
 31
0.0
  0
TEXT
  8
0
 10
137.267353
 20
-13.641751
 30
0.0
 40
0.1
  1
1.7
  7
ROMANC
  0
LINE
  8
0
 10
135.726515
 20
-14.680256
 30
0.0
 11
137.088313
 21
-14.680256
 31
0.0
  0
LINE
  8
0
 10
137.057604
 20
-14.708171
 30
0.0
 11
137.118965
 21
-14.652392
 31
0.0
  0
TEXT
  8
0
 10
137.276131
 20
-14.641778
 30
0.0
 40
0.1
  1
0.2
  7
ROMANC
  0
TEXT
  8
0
 10
131.189025
 20
-9.934963
 30
0.0
 40
0.3
  1
P = 138 dm
  7
ROMANC
  0
TEXT
  8
0
 10
131.139662
 20
-8.872939
 30
0.0
 40
0.3
  1
ESCALA  1:50
  7
ROMANC
  0
TEXT
  8
0
 10
131.139662
 20
-8.387225
 30
0.0
 40
0.3
  1
TIPUS   NT938
  7
ROMANC
  0
TEXT
  8
0
 10
131.152756
 20
-9.471529
 30
0.0
 40
0.3
  1
S = 938 dm
  7
ROMANC
  0
LINE
  8
0
 10
139.109689
 20
-5.983084
 30
0.0
 11
128.609689
 21
-5.983084
 31
0.0
  0
TEXT
  8
0
 10
134.284665
 20
-9.165613
 30
0.0
 40
0.1
  1
2
  7
ROMANC
  0
LINE
  8
0
 10
131.298397
 20
-15.351165
 30
0.0
 11
136.312437
 21
-15.351165
 31
0.0
  0
LINE
  8
0
 10
131.298397
 20
-15.351165
 30
0.0
 11
131.298397
 21
-14.991603
 31
0.0
  0
LINE
  8
0
 10
131.281761
 20
-15.373459
 30
0.0
 11
131.343122
 21
-15.31768
 31
0.0
  0
TEXT
  8
0
 10
133.730906
 20
-15.560742
 30
0.0
 40
0.1
  1
5.0
  7
ROMANC
  0
LINE
  8
0
 10
136.310564
 20
-14.786764
 30
0.0
 11
136.312437
 21
-15.351165
 31
0.0
  0
LINE
  8
0
 10
136.279884
 20
-15.380757
 30
0.0
 11
136.341245
 21
-15.324978
 31
0.0
  0
LINE
  8
0
 10
137.841064
 20
-14.708196
 30
0.0
 11
137.902425
 21
-14.652416
 31
0.0
  0
LINE
  8
0
 10
136.509975
 20
-14.68028
 30
0.0
 11
137.871773
 21
-14.68028
 31
0.0
  0
TEXT
  8
0
 10
138.050813
 20
-13.641775
 30
0.0
 40
0.1
  1
1.9
  7
ROMANC
  0
LINE
  8
0
 10
137.871745
 20
-12.77725
 30
0.0
 11
137.871773
 21
-14.68028
 31
0.0
  0
LINE
  8
0
 10
137.088284
 20
-12.777226
 30
0.0
 11
137.871745
 21
-12.77725
 31
0.0
  0
LINE
  8
0
 10
137.841064
 20
-12.80514
 30
0.0
 11
137.902425
 21
-12.749361
 31
0.0
  0
LINE
  8
0
 10
131.304824
 20
-12.777202
 30
0.0
 11
136.304824
 21
-12.777202
 31
0.0
  0
LINE
  8
0
 10
136.304824
 20
-12.777202
 30
0.0
 11
136.304824
 21
-14.477202
 31
0.0
  0
LINE
  8
0
 10
136.304824
 20
-14.477202
 30
0.0
 11
135.704824
 21
-14.477202
 31
0.0
  0
LINE
  8
0
 10
135.704824
 20
-14.477202
 30
0.0
 11
135.704824
 21
-14.677202
 31
0.0
  0
LINE
  8
0
 10
135.704824
 20
-14.677202
 30
0.0
 11
131.304824
 21
-14.677202
 31
0.0
  0
LINE
  8
0
 10
131.304824
 20
-14.677202
 30
0.0
 11
131.304824
 21
-12.777202
 31
0.0
  0
LINE
  8
0
 10
131.294824
 20
-12.767202
 30
0.0
 11
136.314824
 21
-12.767202
 31
0.0
  0
LINE
  8
0
 10
136.314824
 20
-12.767202
 30
0.0
 11
136.314824
 21
-14.487202
 31
0.0
  0
LINE
  8
0
 10
136.314824
 20
-14.487202
 30
0.0
 11
135.714824
 21
-14.487202
 31
0.0
  0
LINE
  8
0
 10
135.714824
 20
-14.487202
 30
0.0
 11
135.714824
 21
-14.687202
 31
0.0
  0
LINE
  8
0
 10
135.714824
 20
-14.687202
 30
0.0
 11
131.294824
 21
-14.687202
 31
0.0
  0
LINE
  8
0
 10
131.294824
 20
-14.687202
 30
0.0
 11
131.294824
 21
-12.767202
 31
0.0
  0
LINE
  8
0
 10
131.314824
 20
-12.787202
 30
0.0
 11
136.294824
 21
-12.787202
 31
0.0
  0
LINE
  8
0
 10
136.294824
 20
-12.787202
 30
0.0
 11
136.294824
 21
-14.467202
 31
0.0
  0
LINE
  8
0
 10
136.294824
 20
-14.467202
 30
0.0
 11
135.694824
 21
-14.467202
 31
0.0
  0
LINE
  8
0
 10
135.694824
 20
-14.467202
 30
0.0
 11
135.694824
 21
-14.667202
 31
0.0
  0
LINE
  8
0
 10
135.694824
 20
-14.667202
 30
0.0
 11
131.314824
 21
-14.667202
 31
0.0
  0
LINE
  8
0
 10
131.314824
 20
-14.667202
 30
0.0
 11
131.314824
 21
-12.787202
 31
0.0
  0
ENDSEC
  0
EOF
