  0
SECTION
  2
HEADER
  9
$ACADVER
  1
AC1009
  9
$INSBASE
 10
0.0
 20
0.0
 30
0.0
  9
$EXTMIN
 10
281.396000
 20
29.897000
 30
-2147483.648000
  9
$EXTMAX
 10
291.896000
 20
44.747000
 30
0.000000
  9
$LIMMIN
 10
280.396000
 20
28.897000
  9
$LIMMAX
 10
292.896000
 20
43.747000
  9
$ORTHOMODE
 70
     0
  9
$REGENMODE
 70
     1
  9
$FILLMODE
 70
     1
  9
$QTEXTMODE
 70
     0
  9
$MIRRTEXT
 70
     1
  9
$DRAGMODE
 70
     2
  9
$LTSCALE
 40
1.0
  9
$OSMODE
 70
     0
  9
$ATTMODE
 70
     1
  9
$TEXTSIZE
 40
0.2
  9
$TRACEWID
 40
0.05
  9
$TEXTSTYLE
  7
STANDARD
  9
$CLAYER
  8
0
  9
$CELTYPE
  6
BYLAYER
  9
$CECOLOR
 62
   256
  9
$DIMSCALE
 40
1.0
  9
$DIMASZ
 40
0.18
  9
$DIMEXO
 40
0.0625
  9
$DIMDLI
 40
0.38
  9
$DIMRND
 40
0.0
  9
$DIMDLE
 40
0.0
  9
$DIMEXE
 40
0.18
  9
$DIMTP
 40
0.0
  9
$DIMTM
 40
0.0
  9
$DIMTXT
 40
0.18
  9
$DIMCEN
 40
0.09
  9
$DIMTSZ
 40
0.0
  9
$DIMTOL
 70
     0
  9
$DIMLIM
 70
     0
  9
$DIMTIH
 70
     1
  9
$DIMTOH
 70
     1
  9
$DIMSE1
 70
     0
  9
$DIMSE2
 70
     0
  9
$DIMTAD
 70
     0
  9
$DIMZIN
 70
     0
  9
$DIMBLK
  1

  9
$DIMASO
 70
     1
  9
$DIMSHO
 70
     1
  9
$DIMPOST
  1

  9
$DIMAPOST
  1

  9
$DIMALT
 70
     0
  9
$DIMALTD
 70
     2
  9
$DIMALTF
 40
25.4
  9
$DIMLFAC
 40
1.0
  9
$DIMTOFL
 70
     0
  9
$DIMTVP
 40
0.0
  9
$DIMTIX
 70
     0
  9
$DIMSOXD
 70
     0
  9
$DIMSAH
 70
     0
  9
$DIMBLK1
  1

  9
$DIMBLK2
  1

  9
$DIMSTYLE
  2
*UNNAMED
  9
$DIMCLRD
 70
     0
  9
$DIMCLRE
 70
     0
  9
$DIMCLRT
 70
     0
  9
$DIMTFAC
 40
1.0
  9
$DIMGAP
 40
0.09
  9
$LUNITS
 70
     2
  9
$LUPREC
 70
     4
  9
$AXISMODE
 70
     0
  9
$AXISUNIT
 10
0.0
 20
0.0
  9
$SKETCHINC
 40
0.1
  9
$FILLETRAD
 40
0.0
  9
$AUNITS
 70
     0
  9
$AUPREC
 70
     0
  9
$MENU
  1
acad
  9
$ELEVATION
 40
0.0
  9
$PELEVATION
 40
0.0
  9
$THICKNESS
 40
0.0
  9
$LIMCHECK
 70
     0
  9
$BLIPMODE
 70
     1
  9
$CHAMFERA
 40
0.0
  9
$CHAMFERB
 40
0.0
  9
$SKPOLY
 70
     0
  9
$TDCREATE
 40
2448315.373408102
  9
$TDUPDATE
 40
2448315.373408102
  9
$TDINDWG
 40
0.0000000000
  9
$TDUSRTIMER
 40
0.0000000000
  9
$USRTIMER
 70
     1
  9
$ANGBASE
 50
0.0
  9
$ANGDIR
 70
     0
  9
$PDMODE
 70
     0
  9
$PDSIZE
 40
0.0
  9
$PLINEWID
 40
0.0
  9
$COORDS
 70
     0
  9
$SPLFRAME
 70
     0
  9
$SPLINETYPE
 70
     6
  9
$SPLINESEGS
 70
     8
  9
$ATTDIA
 70
     0
  9
$ATTREQ
 70
     1
  9
$HANDLING
 70
     0
  9
$HANDSEED
  5
0
  9
$SURFTAB1
 70
     6
  9
$SURFTAB2
 70
     6
  9
$SURFTYPE
 70
     6
  9
$SURFU
 70
     6
  9
$SURFV
 70
     6
  9
$UCSNAME
  2

  9
$UCSORG
 10
0.0
 20
0.0
 30
0.0
  9
$UCSXDIR
 10
1.0
 20
0.0
 30
0.0
  9
$UCSYDIR
 10
0.0
 20
1.0
 30
0.0
  9
$PUCSNAME
  2

  9
$PUCSORG
 10
0.0
 20
0.0
 30
0.0
  9
$PUCSXDIR
 10
1.0
 20
0.0
 30
0.0
  9
$PUCSYDIR
 10
0.0
 20
1.0
 30
0.0
  9
$USERI1
 70
     0
  9
$USERI2
 70
     0
  9
$USERI3
 70
     0
  9
$USERI4
 70
     0
  9
$USERI5
 70
     0
  9
$USERR1
 40
0.0
  9
$USERR2
 40
0.0
  9
$USERR3
 40
0.0
  9
$USERR4
 40
0.0
  9
$USERR5
 40
0.0
  9
$WORLDVIEW
 70
     1
  9
$SHADEDGE
 70
     3
  9
$SHADEDIF
 70
    70
  9
$TILEMODE
 70
     1
  9
$MAXACTVP
 70
    16
  9
$PINSBASE
 10
0.0
 20
0.0
 30
0.0
  9
$PLIMCHECK
 70
     0
  9
$PEXTMIN
 10
1.000000E+20
 20
1.000000E+20
 30
1.000000E+20
  9
$PEXTMAX
 10
-1.000000E+20
 20
-1.000000E+20
 30
-1.000000E+20
  9
$PLIMMIN
 10
0.0
 20
0.0
  9
$PLIMMAX
 10
12.0
 20
9.0
  9
$UNITMODE
 70
     0
  9
$VISRETAIN
 70
     0
  0
ENDSEC
  0
SECTION
  2
TABLES
  0
TABLE
  2
LTYPE
 70
    1
  0
LTYPE
  2
CONTINUOUS
 70
    64
3
Solid line
 72
    65
 73
0
 40
0.000000
  0
ENDTAB
  0
TABLE
  2
LAYER
 70
    8
  0
LAYER
  2
0
 70
    64
 62
7
  6
CONTINUOUS
  0
LAYER
  2
1
 70
    64
 62
7
  6
CONTINUOUS
  0
LAYER
  2
7
 70
    64
 62
7
  6
CONTINUOUS
  0
LAYER
  2
8
 70
    64
 62
7
  6
CONTINUOUS
  0
LAYER
  2
9
 70
    64
 62
7
  6
CONTINUOUS
  0
LAYER
  2
22
 70
    64
 62
7
  6
CONTINUOUS
  0
LAYER
  2
25
 70
    64
 62
7
  6
CONTINUOUS
  0
LAYER
  2
0
 70
    64
 62
7
  6
CONTINUOUS
  0
ENDTAB
  0
TABLE
  2
STYLE
 70
    1
  0
STYLE
  2
ROMANC
70
     0
 40
0.0
 41
1.0
 50
0.0
 71
     0
 42
0.2
  3
ROMANC
  4

  0
ENDTAB
  0
ENDSEC
  0
SECTION
  2
BLOCKS
  0
ENDSEC
  0
SECTION
  2
ENTITIES
  0
TEXT
  8
0
  6
CONTINUOUS
 40
0.100000
 10
286.909000
 20
41.324000
  1
2
  7
ROMANC
  0
TEXT
  8
0
  6
CONTINUOUS
 40
0.300000
 10
283.926000
 20
41.768000
  1
ESCALA  1:50
  7
ROMANC
  0
POLYLINE
  8
0
  6
CONTINUOUS
 66
     1
 70
     1
  0
VERTEX
  8
0
  6
CONTINUOUS
 10
281.396000
 20
44.747000
  0
VERTEX
  8
0
  6
CONTINUOUS
 10
291.896000
 20
44.747000
  0
VERTEX
  8
0
  6
CONTINUOUS
 10
291.896000
 20
29.897000
  0
VERTEX
  8
0
  6
CONTINUOUS
 10
281.396000
 20
29.897000
  0
SEQEND
  8
0
  0
LINE
  8
1
  6
CONTINUOUS
 10
285.272000
 20
36.225000
 11
284.822000
 21
35.925000
  0
LINE
  8
1
  6
CONTINUOUS
 10
285.672000
 20
33.975000
 11
285.672000
 21
33.575000
  0
TEXT
  8
0
  6
CONTINUOUS
 40
0.300000
 10
283.922000
 20
40.529000
  1
P = 123 dm
  7
ROMANC
  0
TEXT
  8
0
  6
CONTINUOUS
 40
0.300000
 10
283.945000
 20
41.099000
  1
S =933 dm
  7
ROMANC
  0
LINE
  8
1
  6
CONTINUOUS
 10
284.822000
 20
35.925000
 11
284.822000
 21
33.975000
  0
LINE
  8
1
  6
CONTINUOUS
 10
285.672000
 20
33.575000
 11
288.522000
 21
33.575000
  0
TEXT
  8
1
  6
CONTINUOUS
 40
0.075000
 10
285.128000
 20
33.254000
  1
0.85
  7
ROMANC
  0
LINE
  8
1
  6
CONTINUOUS
 10
285.090000
 20
33.291000
 11
284.822000
 21
33.291000
  0
LINE
  8
1
  6
CONTINUOUS
 10
285.402000
 20
33.291000
 11
285.672000
 21
33.291000
  0
LINE
  8
1
  6
CONTINUOUS
 10
284.784000
 20
33.272000
 11
284.860000
 21
33.310000
  0
LINE
  8
1
  6
CONTINUOUS
 10
285.710000
 20
33.310000
 11
285.634000
 21
33.272000
  0
LINE
  8
1
  6
CONTINUOUS
 10
284.822000
 20
33.937000
 11
284.822000
 21
33.253000
  0
LINE
  8
1
  6
CONTINUOUS
 10
285.672000
 20
33.537000
 11
285.672000
 21
33.253000
  0
TEXT
  8
1
  6
CONTINUOUS
 40
0.075000
 10
286.978000
 20
33.254000
  1
2.85
  7
ROMANC
  0
LINE
  8
1
  6
CONTINUOUS
 10
286.940000
 20
33.291000
 11
285.672000
 21
33.291000
  0
LINE
  8
1
  6
CONTINUOUS
 10
287.252000
 20
33.291000
 11
288.522000
 21
33.291000
  0
LINE
  8
1
  6
CONTINUOUS
 10
285.634000
 20
33.272000
 11
285.710000
 21
33.310000
  0
LINE
  8
1
  6
CONTINUOUS
 10
288.560000
 20
33.310000
 11
288.484000
 21
33.272000
  0
LINE
  8
1
  6
CONTINUOUS
 10
288.522000
 20
33.537000
 11
288.522000
 21
33.253000
  0
TEXT
  8
1
  6
CONTINUOUS
 40
0.075000
 10
286.553000
 20
32.970000
  1
3.70
  7
ROMANC
  0
LINE
  8
1
  6
CONTINUOUS
 10
286.515000
 20
33.007000
 11
284.822000
 21
33.007000
  0
LINE
  8
1
  6
CONTINUOUS
 10
286.827000
 20
33.007000
 11
288.522000
 21
33.007000
  0
LINE
  8
1
  6
CONTINUOUS
 10
284.784000
 20
32.988000
 11
284.860000
 21
33.026000
  0
LINE
  8
1
  6
CONTINUOUS
 10
288.560000
 20
33.026000
 11
288.484000
 21
32.988000
  0
LINE
  8
1
  6
CONTINUOUS
 10
284.822000
 20
33.937000
 11
284.822000
 21
32.969000
  0
LINE
  8
1
  6
CONTINUOUS
 10
288.522000
 20
33.537000
 11
288.522000
 21
32.969000
  0
LINE
  8
1
  6
CONTINUOUS
 10
284.822000
 20
33.975000
 11
285.672000
 21
33.975000
  0
TEXT
  8
1
  6
CONTINUOUS
 40
0.075000
 10
286.010000
 20
33.653000
  1
0.40
 50
90.000000
  7
ROMANC
  0
LINE
  8
1
  6
CONTINUOUS
 10
285.972000
 20
33.425000
 11
285.972000
 21
33.575000
  0
LINE
  8
1
  6
CONTINUOUS
 10
285.972000
 20
34.125000
 11
285.972000
 21
33.975000
  0
LINE
  8
1
  6
CONTINUOUS
 10
285.953000
 20
33.612000
 11
285.991000
 21
33.538000
  0
LINE
  8
1
  6
CONTINUOUS
 10
285.991000
 20
33.938000
 11
285.953000
 21
34.012000
  0
LINE
  8
1
  6
CONTINUOUS
 10
285.710000
 20
33.575000
 11
286.010000
 21
33.575000
  0
LINE
  8
1
  6
CONTINUOUS
 10
285.710000
 20
33.975000
 11
286.010000
 21
33.975000
  0
LINE
  8
1
  6
CONTINUOUS
 10
288.522000
 20
33.575000
 11
288.522000
 21
35.925000
  0
LINE
  8
1
  6
CONTINUOUS
 10
288.072000
 20
36.225000
 11
285.272000
 21
36.225000
  0
TEXT
  8
1
  6
CONTINUOUS
 40
0.075000
 10
289.078000
 20
34.781000
  1
2.65
 50
90.000000
  7
ROMANC
  0
LINE
  8
1
  6
CONTINUOUS
 10
289.040000
 20
34.743000
 11
289.040000
 21
33.575000
  0
LINE
  8
1
  6
CONTINUOUS
 10
289.040000
 20
35.055000
 11
289.040000
 21
36.225000
  0
LINE
  8
1
  6
CONTINUOUS
 10
289.059000
 20
33.538000
 11
289.021000
 21
33.612000
  0
LINE
  8
1
  6
CONTINUOUS
 10
289.021000
 20
36.262000
 11
289.059000
 21
36.188000
  0
LINE
  8
1
  6
CONTINUOUS
 10
288.560000
 20
33.575000
 11
289.078000
 21
33.575000
  0
LINE
  8
1
  6
CONTINUOUS
 10
288.110000
 20
36.225000
 11
289.078000
 21
36.225000
  0
LINE
  8
1
  6
CONTINUOUS
 10
288.522000
 20
35.925000
 11
288.072000
 21
36.225000
  0
TEXT
  8
1
  6
CONTINUOUS
 40
0.075000
 10
288.800000
 20
35.975000
  1
0.30
 50
90.000000
  7
ROMANC
  0
LINE
  8
1
  6
CONTINUOUS
 10
288.762000
 20
35.775000
 11
288.762000
 21
35.925000
  0
LINE
  8
1
  6
CONTINUOUS
 10
288.762000
 20
36.375000
 11
288.762000
 21
36.225000
  0
LINE
  8
1
  6
CONTINUOUS
 10
288.743000
 20
35.962000
 11
288.781000
 21
35.888000
  0
LINE
  8
1
  6
CONTINUOUS
 10
288.781000
 20
36.188000
 11
288.743000
 21
36.262000
  0
LINE
  8
1
  6
CONTINUOUS
 10
288.560000
 20
35.925000
 11
288.800000
 21
35.925000
  0
LINE
  8
1
  6
CONTINUOUS
 10
288.110000
 20
36.225000
 11
288.800000
 21
36.225000
  0
TEXT
  8
1
  6
CONTINUOUS
 40
0.075000
 10
288.176000
 20
36.408000
  1
0.45
  7
ROMANC
  0
LINE
  8
1
  6
CONTINUOUS
 10
288.672000
 20
36.446000
 11
288.522000
 21
36.446000
  0
LINE
  8
1
  6
CONTINUOUS
 10
287.922000
 20
36.446000
 11
288.072000
 21
36.446000
  0
LINE
  8
1
  6
CONTINUOUS
 10
288.484000
 20
36.427000
 11
288.560000
 21
36.465000
  0
LINE
  8
1
  6
CONTINUOUS
 10
288.110000
 20
36.465000
 11
288.034000
 21
36.427000
  0
LINE
  8
1
  6
CONTINUOUS
 10
288.522000
 20
35.963000
 11
288.522000
 21
36.484000
  0
LINE
  8
1
  6
CONTINUOUS
 10
288.072000
 20
36.263000
 11
288.072000
 21
36.484000
  0
LINE
  8
1
  6
CONTINUOUS
 10
288.074000
 20
36.235000
 11
285.269000
 21
36.235000
  0
LINE
  8
1
  6
CONTINUOUS
 10
288.077000
 20
36.245000
 11
285.266000
 21
36.245000
  0
LINE
  8
1
  6
CONTINUOUS
 10
288.532000
 20
35.930000
 11
288.074000
 21
36.235000
  0
LINE
  8
1
  6
CONTINUOUS
 10
288.542000
 20
35.935000
 11
288.077000
 21
36.245000
  0
LINE
  8
1
  6
CONTINUOUS
 10
288.532000
 20
33.565000
 11
288.532000
 21
35.930000
  0
LINE
  8
1
  6
CONTINUOUS
 10
288.542000
 20
33.555000
 11
288.542000
 21
35.935000
  0
LINE
  8
1
  6
CONTINUOUS
 10
285.662000
 20
33.565000
 11
288.532000
 21
33.565000
  0
LINE
  8
1
  6
CONTINUOUS
 10
285.652000
 20
33.555000
 11
288.542000
 21
33.555000
  0
LINE
  8
1
  6
CONTINUOUS
 10
285.662000
 20
33.965000
 11
285.662000
 21
33.565000
  0
LINE
  8
1
  6
CONTINUOUS
 10
285.652000
 20
33.955000
 11
285.652000
 21
33.555000
  0
LINE
  8
1
  6
CONTINUOUS
 10
284.812000
 20
33.965000
 11
285.662000
 21
33.965000
  0
LINE
  8
1
  6
CONTINUOUS
 10
284.802000
 20
33.955000
 11
285.652000
 21
33.955000
  0
LINE
  8
1
  6
CONTINUOUS
 10
284.812000
 20
35.930000
 11
284.812000
 21
33.965000
  0
LINE
  8
1
  6
CONTINUOUS
 10
284.802000
 20
35.936000
 11
284.802000
 21
33.955000
  0
LINE
  8
1
  6
CONTINUOUS
 10
285.269000
 20
36.235000
 11
284.812000
 21
35.930000
  0
LINE
  8
1
  6
CONTINUOUS
 10
285.266000
 20
36.245000
 11
284.802000
 21
35.936000
  0
TEXT
  8
0
  6
CONTINUOUS
 40
0.300000
 10
283.926000
 20
42.381000
  1
TIPUS   NT933
  7
ROMANC
  0
ENDSEC
  0
EOF
