  0
SECTION
  2
HEADER
  9
$ACADVER
  1
AC1009
  9
$INSBASE
 10
234.237681
 20
-4.201962
 30
0.0
  9
$EXTMIN
 10
234.237681
 20
-4.201962
 30
0.0
  9
$EXTMAX
 10
244.737681
 20
10.648038
 30
0.0
  9
$LIMMIN
 10
0.0
 20
0.0
  9
$LIMMAX
 10
410.0
 20
287.0
  9
$ORTHOMODE
 70
     1
  9
$REGENMODE
 70
     1
  9
$FILLMODE
 70
     1
  9
$QTEXTMODE
 70
     0
  9
$MIRRTEXT
 70
     1
  9
$DRAGMODE
 70
     2
  9
$LTSCALE
 40
25.0
  9
$OSMODE
 70
    33
  9
$ATTMODE
 70
     1
  9
$TEXTSIZE
 40
0.1
  9
$TRACEWID
 40
1.0
  9
$TEXTSTYLE
  7
ROMANC
  9
$CLAYER
  8
0
  9
$CELTYPE
  6
BYLAYER
  9
$CECOLOR
 62
   256
  9
$DIMSCALE
 40
0.0
  9
$DIMASZ
 40
0.0
  9
$DIMEXO
 40
0.1
  9
$DIMDLI
 40
7.0
  9
$DIMRND
 40
0.0
  9
$DIMDLE
 40
0.0
  9
$DIMEXE
 40
1.8
  9
$DIMTP
 40
0.0
  9
$DIMTM
 40
0.0
  9
$DIMTXT
 40
0.03
  9
$DIMCEN
 40
1.5
  9
$DIMTSZ
 40
1.0
  9
$DIMTOL
 70
     0
  9
$DIMLIM
 70
     0
  9
$DIMTIH
 70
     0
  9
$DIMTOH
 70
     0
  9
$DIMSE1
 70
     0
  9
$DIMSE2
 70
     0
  9
$DIMTAD
 70
     0
  9
$DIMZIN
 70
     0
  9
$DIMBLK
  1

  9
$DIMASO
 70
     1
  9
$DIMSHO
 70
     0
  9
$DIMPOST
  1

  9
$DIMAPOST
  1

  9
$DIMALT
 70
     0
  9
$DIMALTD
 70
     2
  9
$DIMALTF
 40
25.4
  9
$DIMLFAC
 40
1.0
  9
$DIMTOFL
 70
     1
  9
$DIMTVP
 40
0.0
  9
$DIMTIX
 70
     1
  9
$DIMSOXD
 70
     0
  9
$DIMSAH
 70
     0
  9
$DIMBLK1
  1

  9
$DIMBLK2
  1

  9
$DIMSTYLE
  2
*UNNAMED
  9
$DIMCLRD
 70
     0
  9
$DIMCLRE
 70
     0
  9
$DIMCLRT
 70
     0
  9
$DIMTFAC
 40
116.666667
  9
$DIMGAP
 40
0.09
  9
$LUNITS
 70
     2
  9
$LUPREC
 70
     2
  9
$SKETCHINC
 40
1.0
  9
$FILLETRAD
 40
0.0
  9
$AUNITS
 70
     0
  9
$AUPREC
 70
     0
  9
$MENU
  1
acad
  9
$ELEVATION
 40
0.0
  9
$PELEVATION
 40
0.0
  9
$THICKNESS
 40
0.0
  9
$LIMCHECK
 70
     0
  9
$BLIPMODE
 70
     0
  9
$CHAMFERA
 40
0.0
  9
$CHAMFERB
 40
0.0
  9
$SKPOLY
 70
     0
  9
$TDCREATE
 40
2449967.729981366
  9
$TDUPDATE
 40
2450723.397649652
  9
$TDINDWG
 40
0.0037875000
  9
$TDUSRTIMER
 40
0.0037875000
  9
$USRTIMER
 70
     1
  9
$ANGBASE
 50
0.0
  9
$ANGDIR
 70
     0
  9
$PDMODE
 70
     0
  9
$PDSIZE
 40
0.0
  9
$PLINEWID
 40
0.0
  9
$COORDS
 70
     0
  9
$SPLFRAME
 70
     0
  9
$SPLINETYPE
 70
     6
  9
$SPLINESEGS
 70
     8
  9
$ATTDIA
 70
     0
  9
$ATTREQ
 70
     1
  9
$HANDLING
 70
     0
  9
$HANDSEED
  5
0
  9
$SURFTAB1
 70
     6
  9
$SURFTAB2
 70
     6
  9
$SURFTYPE
 70
     6
  9
$SURFU
 70
     6
  9
$SURFV
 70
     6
  9
$UCSNAME
  2

  9
$UCSORG
 10
0.0
 20
0.0
 30
0.0
  9
$UCSXDIR
 10
1.0
 20
0.0
 30
0.0
  9
$UCSYDIR
 10
0.0
 20
1.0
 30
0.0
  9
$PUCSNAME
  2

  9
$PUCSORG
 10
0.0
 20
0.0
 30
0.0
  9
$PUCSXDIR
 10
1.0
 20
0.0
 30
0.0
  9
$PUCSYDIR
 10
0.0
 20
1.0
 30
0.0
  9
$USERI1
 70
     0
  9
$USERI2
 70
     0
  9
$USERI3
 70
     0
  9
$USERI4
 70
     0
  9
$USERI5
 70
     0
  9
$USERR1
 40
0.0
  9
$USERR2
 40
0.0
  9
$USERR3
 40
0.0
  9
$USERR4
 40
0.0
  9
$USERR5
 40
0.0
  9
$WORLDVIEW
 70
     1
  9
$SHADEDGE
 70
     3
  9
$SHADEDIF
 70
    70
  9
$TILEMODE
 70
     1
  9
$MAXACTVP
 70
    16
  9
$PINSBASE
 10
0.0
 20
0.0
 30
0.0
  9
$PLIMCHECK
 70
     0
  9
$PEXTMIN
 10
1.000000E+20
 20
1.000000E+20
 30
1.000000E+20
  9
$PEXTMAX
 10
-1.000000E+20
 20
-1.000000E+20
 30
-1.000000E+20
  9
$PLIMMIN
 10
0.0
 20
0.0
  9
$PLIMMAX
 10
12.0
 20
9.0
  9
$UNITMODE
 70
     0
  9
$VISRETAIN
 70
     0
  9
$PLINEGEN
 70
     0
  9
$PSLTSCALE
 70
     0
  9
$TREEDEPTH
 70
  3020
  9
$DWGCODEPAGE
  3
iso8859-1
  0
ENDSEC
  0
SECTION
  2
TABLES
  0
TABLE
  2
VPORT
 70
     1
  0
VPORT
  2
*ACTIVE
 70
     0
 10
0.0
 20
0.0
 11
1.0
 21
1.0
 12
246.199531
 22
3.223038
 13
0.0
 23
0.0
 14
1.0
 24
1.0
 15
10.0
 25
10.0
 16
0.0
 26
0.0
 36
1.0
 17
0.0
 27
0.0
 37
0.0
 40
14.85
 41
1.611024
 42
50.0
 43
0.0
 44
0.0
 50
0.0
 51
0.0
 71
     0
 72
   100
 73
     1
 74
     0
 75
     0
 76
     0
 77
     0
 78
     1
  0
ENDTAB
  0
TABLE
  2
LTYPE
 70
     1
  0
LTYPE
  2
CONTINUOUS
 70
    64
  3
Solid line
 72
    65
 73
     0
 40
0.0
  0
ENDTAB
  0
TABLE
  2
LAYER
 70
     1
  0
LAYER
  2
0
 70
    64
 62
     7
  6
CONTINUOUS
  0
ENDTAB
  0
TABLE
  2
STYLE
 70
     2
  0
STYLE
  2
STANDARD
 70
     0
 40
0.0
 41
1.0
 50
0.0
 71
     0
 42
0.1
  3
txt
  4

  0
STYLE
  2
ROMANC
 70
    64
 40
0.0
 41
1.0
 50
0.0
 71
     0
 42
0.1
  3
romanc
  4

  0
ENDTAB
  0
TABLE
  2
VIEW
 70
     0
  0
ENDTAB
  0
TABLE
  2
UCS
 70
     0
  0
ENDTAB
  0
TABLE
  2
APPID
 70
     1
  0
APPID
  2
ACAD
 70
    64
  0
ENDTAB
  0
TABLE
  2
DIMSTYLE
 70
     0
  0
ENDTAB
  0
ENDSEC
  0
SECTION
  2
BLOCKS
  0
ENDSEC
  0
SECTION
  2
ENTITIES
  0
LINE
  8
0
 10
244.737681
 20
10.648038
 30
0.0
 11
234.237681
 21
10.648038
 31
0.0
  0
TEXT
  8
0
 10
236.767653
 20
7.758183
 30
0.0
 40
0.3
  1
ESCALA  1:50
  7
ROMANC
  0
TEXT
  8
0
 10
236.767653
 20
8.243897
 30
0.0
 40
0.3
  1
TIPUS   NT912
  7
ROMANC
  0
TEXT
  8
0
 10
236.780747
 20
7.159593
 30
0.0
 40
0.3
  1
S = 912  dm
  7
ROMANC
  0
TEXT
  8
0
 10
236.729731
 20
6.462014
 30
0.0
 40
0.3
  1
P = 123  dm
  7
ROMANC
  0
LINE
  8
0
 10
234.237681
 20
-4.201962
 30
0.0
 11
244.737681
 21
-4.201962
 31
0.0
  0
LINE
  8
0
 10
234.237681
 20
10.648038
 30
0.0
 11
234.237681
 21
-4.201962
 31
0.0
  0
LINE
  8
0
 10
236.387168
 20
-0.511221
 30
0.0
 11
236.513331
 21
-0.372757
 31
0.0
  0
LINE
  8
0
 10
244.737681
 20
-4.201962
 30
0.0
 11
244.737681
 21
10.648038
 31
0.0
  0
LINE
  8
0
 10
238.939756
 20
0.045851
 30
0.0
 11
239.065919
 21
0.184315
 31
0.0
  0
LINE
  8
0
 10
239.579758
 20
0.045415
 30
0.0
 11
239.705921
 21
0.183879
 31
0.0
  0
LINE
  8
0
 10
240.647957
 20
0.495558
 30
0.0
 11
240.77412
 21
0.634022
 31
0.0
  0
TEXT
  8
0
 10
239.197241
 20
-0.197069
 30
0.0
 40
0.1
  1
0.65
  7
ROMANC
  0
LINE
  8
0
 10
239.579758
 20
-0.511221
 30
0.0
 11
239.705921
 21
-0.372757
 31
0.0
  0
TEXT
  8
0
 10
238.038687
 20
-0.720306
 30
0.0
 40
0.1
  1
3.20
  7
ROMANC
  0
LINE
  8
0
 10
240.650405
 20
3.453682
 30
0.0
 11
240.776568
 21
3.592146
 31
0.0
  0
LINE
  8
0
 10
240.65108
 20
1.003484
 30
0.0
 11
240.777243
 21
1.141948
 31
0.0
  0
TEXT
  8
0
 10
241.061843
 20
2.229847
 30
0.0
 40
0.1
  1
2.45
  7
ROMANC
  0
TEXT
  8
0
 10
241.07662
 20
0.752891
 30
0.0
 40
0.1
  1
0.50
  7
ROMANC
  0
TEXT
  8
0
 10
240.271445
 20
7.46652
 30
0.0
 40
0.1
  1
2
  7
ROMANC
  0
LINE
  8
0
 10
241.767269
 20
3.522556
 30
0.0
 11
241.767269
 21
0.56583
 31
0.0
  0
LINE
  8
0
 10
240.714161
 20
1.072716
 30
0.0
 11
240.711038
 21
0.56479
 31
0.0
  0
LINE
  8
0
 10
241.767269
 20
0.56583
 30
0.0
 11
239.011119
 21
0.563115
 31
0.0
  0
LINE
  8
0
 10
239.642839
 20
1.073276
 30
0.0
 11
240.714161
 21
1.072716
 31
0.0
  0
LINE
  8
0
 10
240.714161
 20
1.072716
 30
0.0
 11
240.713487
 21
3.522914
 31
0.0
  0
LINE
  8
0
 10
241.767269
 20
3.522556
 30
0.0
 11
239.650249
 21
3.523276
 31
0.0
  0
LINE
  8
0
 10
236.450249
 20
0.116825
 30
0.0
 11
239.642839
 21
0.114647
 31
0.0
  0
LINE
  8
0
 10
239.642839
 20
0.114647
 30
0.0
 11
239.642839
 21
1.073276
 31
0.0
  0
LINE
  8
0
 10
236.450249
 20
0.571087
 30
0.0
 11
236.450249
 21
-0.441989
 31
0.0
  0
LINE
  8
0
 10
236.450249
 20
-0.441989
 30
0.0
 11
239.642839
 21
-0.441989
 31
0.0
  0
LINE
  8
0
 10
236.450249
 20
0.573276
 30
0.0
 11
239.000249
 21
0.573276
 31
0.0
  0
LINE
  8
0
 10
239.000249
 20
0.573276
 30
0.0
 11
239.000249
 21
1.073276
 31
0.0
  0
LINE
  8
0
 10
239.000249
 20
1.073276
 30
0.0
 11
239.650249
 21
1.073276
 31
0.0
  0
LINE
  8
0
 10
239.650249
 20
1.073276
 30
0.0
 11
239.650249
 21
3.523276
 31
0.0
  0
LINE
  8
0
 10
239.650249
 20
3.523276
 30
0.0
 11
236.450249
 21
3.523276
 31
0.0
  0
LINE
  8
0
 10
236.450249
 20
3.523276
 30
0.0
 11
236.450249
 21
0.573276
 31
0.0
  0
LINE
  8
0
 10
236.440249
 20
0.563276
 30
0.0
 11
239.010249
 21
0.563276
 31
0.0
  0
LINE
  8
0
 10
239.010249
 20
0.563276
 30
0.0
 11
239.010249
 21
1.063276
 31
0.0
  0
LINE
  8
0
 10
239.010249
 20
1.063276
 30
0.0
 11
239.660249
 21
1.063276
 31
0.0
  0
LINE
  8
0
 10
239.660249
 20
1.063276
 30
0.0
 11
239.660249
 21
3.533276
 31
0.0
  0
LINE
  8
0
 10
239.660249
 20
3.533276
 30
0.0
 11
236.440249
 21
3.533276
 31
0.0
  0
LINE
  8
0
 10
236.440249
 20
3.533276
 30
0.0
 11
236.440249
 21
0.563276
 31
0.0
  0
LINE
  8
0
 10
236.460249
 20
0.583276
 30
0.0
 11
238.990249
 21
0.583276
 31
0.0
  0
LINE
  8
0
 10
238.990249
 20
0.583276
 30
0.0
 11
238.990249
 21
1.083276
 31
0.0
  0
LINE
  8
0
 10
238.990249
 20
1.083276
 30
0.0
 11
239.640249
 21
1.083276
 31
0.0
  0
LINE
  8
0
 10
239.640249
 20
1.083276
 30
0.0
 11
239.640249
 21
3.513276
 31
0.0
  0
LINE
  8
0
 10
239.640249
 20
3.513276
 30
0.0
 11
236.460249
 21
3.513276
 31
0.0
  0
LINE
  8
0
 10
236.460249
 20
3.513276
 30
0.0
 11
236.460249
 21
0.583276
 31
0.0
  0
LINE
  8
0
 10
239.002838
 20
0.115083
 30
0.0
 11
239.002128
 21
0.574247
 31
0.0
  0
LINE
  8
0
 10
239.642839
 20
-0.441989
 30
0.0
 11
239.642839
 21
0.114647
 31
0.0
  0
LINE
  8
0
 10
241.701739
 20
0.495199
 30
0.0
 11
241.827902
 21
0.633663
 31
0.0
  0
LINE
  8
0
 10
241.704187
 20
3.453324
 30
0.0
 11
241.83035
 21
3.591788
 31
0.0
  0
LINE
  8
0
 10
236.387168
 20
0.047593
 30
0.0
 11
236.513331
 21
0.186057
 31
0.0
  0
TEXT
  8
0
 10
237.641662
 20
-0.197069
 30
0.0
 40
0.1
  1
2.55
  7
ROMANC
  0
TEXT
  8
0
 10
241.91034
 20
2.031982
 30
0.0
 40
0.1
  1
2.95
  7
ROMANC
  0
ENDSEC
  0
EOF
