  0
SECTION
  2
HEADER
  9
$ACADVER
  1
AC1009
  9
$INSBASE
 10
105.464027
 20
-4.528761
 30
0.0
  9
$EXTMIN
 10
281.387025
 20
29.879777
 30
-0.001526
  9
$EXTMAX
 10
291.897279
 20
44.769303
 30
0.0
  9
$LIMMIN
 10
0.0
 20
0.0
  9
$LIMMAX
 10
410.0
 20
287.0
  9
$ORTHOMODE
 70
     0
  9
$REGENMODE
 70
     1
  9
$FILLMODE
 70
     1
  9
$QTEXTMODE
 70
     0
  9
$MIRRTEXT
 70
     1
  9
$DRAGMODE
 70
     2
  9
$LTSCALE
 40
25.0
  9
$OSMODE
 70
    32
  9
$ATTMODE
 70
     1
  9
$TEXTSIZE
 40
0.1
  9
$TRACEWID
 40
1.0
  9
$TEXTSTYLE
  7
ROMANC
  9
$CLAYER
  8
0
  9
$CELTYPE
  6
BYLAYER
  9
$CECOLOR
 62
   256
  9
$DIMSCALE
 40
1.5
  9
$DIMASZ
 40
0.1
  9
$DIMEXO
 40
0.01
  9
$DIMDLI
 40
7.0
  9
$DIMRND
 40
0.0
  9
$DIMDLE
 40
0.0
  9
$DIMEXE
 40
0.01
  9
$DIMTP
 40
0.0
  9
$DIMTM
 40
0.0
  9
$DIMTXT
 40
0.05
  9
$DIMCEN
 40
0.1
  9
$DIMTSZ
 40
0.0
  9
$DIMTOL
 70
     0
  9
$DIMLIM
 70
     0
  9
$DIMTIH
 70
     0
  9
$DIMTOH
 70
     0
  9
$DIMSE1
 70
     0
  9
$DIMSE2
 70
     0
  9
$DIMTAD
 70
     1
  9
$DIMZIN
 70
     0
  9
$DIMBLK
  1

  9
$DIMASO
 70
     1
  9
$DIMSHO
 70
     0
  9
$DIMPOST
  1

  9
$DIMAPOST
  1

  9
$DIMALT
 70
     0
  9
$DIMALTD
 70
     2
  9
$DIMALTF
 40
25.4
  9
$DIMLFAC
 40
1.0
  9
$DIMTOFL
 70
     1
  9
$DIMTVP
 40
0.0
  9
$DIMTIX
 70
     1
  9
$DIMSOXD
 70
     0
  9
$DIMSAH
 70
     0
  9
$DIMBLK1
  1

  9
$DIMBLK2
  1

  9
$DIMSTYLE
  2
SILVIA
  9
$DIMCLRD
 70
     0
  9
$DIMCLRE
 70
     0
  9
$DIMCLRT
 70
     0
  9
$DIMTFAC
 40
70.0
  9
$DIMGAP
 40
0.09
  9
$LUNITS
 70
     2
  9
$LUPREC
 70
     2
  9
$SKETCHINC
 40
1.0
  9
$FILLETRAD
 40
0.0
  9
$AUNITS
 70
     0
  9
$AUPREC
 70
     0
  9
$MENU
  1
acad
  9
$ELEVATION
 40
0.0
  9
$PELEVATION
 40
0.0
  9
$THICKNESS
 40
0.0
  9
$LIMCHECK
 70
     0
  9
$BLIPMODE
 70
     0
  9
$CHAMFERA
 40
0.0
  9
$CHAMFERB
 40
0.0
  9
$SKPOLY
 70
     0
  9
$TDCREATE
 40
2449791.694788
  9
$TDUPDATE
 40
2451220.467729
  9
$TDINDWG
 40
1.396173
  9
$TDUSRTIMER
 40
1.396173
  9
$USRTIMER
 70
     1
  9
$ANGBASE
 50
0.0
  9
$ANGDIR
 70
     0
  9
$PDMODE
 70
     0
  9
$PDSIZE
 40
0.0
  9
$PLINEWID
 40
0.0
  9
$COORDS
 70
     2
  9
$SPLFRAME
 70
     0
  9
$SPLINETYPE
 70
     6
  9
$SPLINESEGS
 70
     8
  9
$ATTDIA
 70
     0
  9
$ATTREQ
 70
     1
  9
$HANDLING
 70
     1
  9
$HANDSEED
  5
132
  9
$SURFTAB1
 70
     6
  9
$SURFTAB2
 70
     6
  9
$SURFTYPE
 70
     6
  9
$SURFU
 70
     6
  9
$SURFV
 70
     6
  9
$UCSNAME
  2

  9
$UCSORG
 10
0.0
 20
0.0
 30
0.0
  9
$UCSXDIR
 10
1.0
 20
0.0
 30
0.0
  9
$UCSYDIR
 10
0.0
 20
1.0
 30
0.0
  9
$PUCSNAME
  2

  9
$PUCSORG
 10
0.0
 20
0.0
 30
0.0
  9
$PUCSXDIR
 10
1.0
 20
0.0
 30
0.0
  9
$PUCSYDIR
 10
0.0
 20
1.0
 30
0.0
  9
$USERI1
 70
     0
  9
$USERI2
 70
     0
  9
$USERI3
 70
     0
  9
$USERI4
 70
     0
  9
$USERI5
 70
     0
  9
$USERR1
 40
0.0
  9
$USERR2
 40
0.0
  9
$USERR3
 40
0.0
  9
$USERR4
 40
0.0
  9
$USERR5
 40
0.0
  9
$WORLDVIEW
 70
     1
  9
$SHADEDGE
 70
     3
  9
$SHADEDIF
 70
    70
  9
$TILEMODE
 70
     1
  9
$MAXACTVP
 70
    16
  9
$PLIMCHECK
 70
     0
  9
$PEXTMIN
 10
1.000000E+020
 20
1.000000E+020
 30
1.000000E+020
  9
$PEXTMAX
 10
-1.000000E+020
 20
-1.000000E+020
 30
-1.000000E+020
  9
$PLIMMIN
 10
0.0
 20
0.0
  9
$PLIMMAX
 10
12.0
 20
9.0
  9
$UNITMODE
 70
     0
  9
$VISRETAIN
 70
     0
  9
$PLINEGEN
 70
     0
  9
$PSLTSCALE
 70
     0
  0
ENDSEC
  0
SECTION
  2
TABLES
  0
TABLE
  2
VPORT
 70
     3
  0
VPORT
  2
*ACTIVE
 70
     0
 10
0.0
 20
0.0
 11
1.0
 21
1.0
 12
286.642152
 22
37.32454
 13
0.0
 23
0.0
 14
1.0
 24
1.0
 15
10.0
 25
10.0
 16
0.0
 26
0.0
 36
1.0
 17
0.0
 27
0.0
 37
0.0
 40
15.024273
 41
1.732628
 42
50.0
 43
0.0
 44
0.0
 50
0.0
 51
0.0
 71
     0
 72
   100
 73
     1
 74
     0
 75
     0
 76
     0
 77
     0
 78
     1
  0
ENDTAB
  0
TABLE
  2
LTYPE
 70
     1
  0
LTYPE
  2
CONTINUOUS
 70
     0
  3
Solid line
 72
    65
 73
     0
 40
0.0
  0
ENDTAB
  0
TABLE
  2
LAYER
 70
     3
  0
LAYER
  2
0
 70
     0
 62
     7
  6
CONTINUOUS
  0
LAYER
  2
MESURA
 70
     0
 62
     7
  6
CONTINUOUS
  0
LAYER
  2
DEFPOINTS
 70
     0
 62
     7
  6
CONTINUOUS
  0
ENDTAB
  0
TABLE
  2
STYLE
 70
     2
  0
STYLE
  2
STANDARD
 70
     0
 40
0.0
 41
1.0
 50
0.0
 71
     0
 42
0.1
  3
txt
  4

  0
STYLE
  2
ROMANC
 70
     0
 40
0.0
 41
1.0
 50
0.0
 71
     0
 42
0.1
  3
romanc
  4

  0
ENDTAB
  0
TABLE
  2
VIEW
 70
     0
  0
ENDTAB
  0
TABLE
  2
UCS
 70
     0
  0
ENDTAB
  0
TABLE
  2
APPID
 70
     1
  0
APPID
  2
ACAD
 70
     0
  0
ENDTAB
  0
TABLE
  2
DIMSTYLE
 70
     1
  0
DIMSTYLE
  2
SILVIA
 70
     0
  3

  4

  5

  6

  7

 40
1.5
 41
0.1
 42
0.01
 43
7.0
 44
0.01
 45
0.0
 46
0.0
 47
0.0
 48
0.0
140
0.05
141
0.1
142
0.0
143
25.4
144
1.0
145
0.0
146
70.0
147
0.09
 71
     0
 72
     0
 73
     0
 74
     0
 75
     0
 76
     0
 77
     1
 78
     0
170
     0
171
     2
172
     1
173
     0
174
     1
175
     0
176
     0
177
     0
178
     0
  0
ENDTAB
  0
ENDSEC
  0
SECTION
  2
BLOCKS
  0
BLOCK
  8
0
  2
$MODEL_SPACE
 70
     0
 10
0.0
 20
0.0
 30
0.0
  3
$MODEL_SPACE
  1

  0
ENDBLK
  5
1A
  8
0
  0
BLOCK
 67
     1
  8
0
  2
$PAPER_SPACE
 70
     0
 10
0.0
 20
0.0
 30
0.0
  3
$PAPER_SPACE
  1

  0
ENDBLK
  5
17
 67
     1
  8
0
  0
BLOCK
  8
0
  2
*D0
 70
     1
 10
0.0
 20
0.0
 30
0.0
  3
*D0
  1

  0
LINE
  5
26
  8
0
  6
BYBLOCK
 62
     0
 10
286.14484
 20
34.796075
 30
0.0
 11
286.14484
 21
34.470516
 31
0.0
  0
LINE
  5
27
  8
0
  6
BYBLOCK
 62
     0
 10
286.64484
 20
34.796075
 30
0.0
 11
286.64484
 21
34.470516
 31
0.0
  0
LINE
  5
28
  8
0
  6
BYBLOCK
 62
     0
 10
285.99484
 20
34.485516
 30
0.0
 11
285.84484
 21
34.485516
 31
0.0
  0
LINE
  5
29
  8
0
  6
BYBLOCK
 62
     0
 10
286.79484
 20
34.485516
 30
0.0
 11
286.94484
 21
34.485516
 31
0.0
  0
SOLID
  5
2A
  8
0
  6
BYBLOCK
 62
     0
 10
285.99484
 20
34.510516
 30
0.0
 11
285.99484
 21
34.460516
 31
0.0
 12
286.14484
 22
34.485516
 32
0.0
 13
286.14484
 23
34.485516
 33
0.0
  0
SOLID
  5
2B
  8
0
  6
BYBLOCK
 62
     0
 10
286.79484
 20
34.510516
 30
0.0
 11
286.79484
 21
34.460516
 31
0.0
 12
286.64484
 22
34.485516
 32
0.0
 13
286.64484
 23
34.485516
 33
0.0
  0
LINE
  5
2C
  8
0
  6
BYBLOCK
 62
     0
 10
286.14484
 20
34.485516
 30
0.0
 11
286.64484
 21
34.485516
 31
0.0
  0
TEXT
  5
2D
  8
0
  6
BYBLOCK
 62
     0
 10
286.26984
 20
34.523016
 30
0.0
 40
0.075
  1
0.50
  7
ROMANC
 72
     1
 11
286.39484
 21
34.560516
 31
0.0
 73
     2
  0
POINT
  5
2E
  8
DEFPOINTS
  6
BYBLOCK
 62
     0
 10
286.14484
 20
34.811075
 30
0.0
  0
POINT
  5
2F
  8
DEFPOINTS
  6
BYBLOCK
 62
     0
 10
286.64484
 20
34.811075
 30
0.0
  0
POINT
  5
30
  8
DEFPOINTS
  6
BYBLOCK
 62
     0
 10
286.64484
 20
34.485516
 30
0.0
  0
ENDBLK
  5
31
  8
0
  0
BLOCK
  8
0
  2
*D1
 70
     1
 10
0.0
 20
0.0
 30
0.0
  3
*D1
  1

  0
LINE
  5
34
  8
0
  6
BYBLOCK
 62
     0
 10
286.65984
 20
34.811075
 30
0.0
 11
287.164804
 21
34.811075
 31
0.0
  0
LINE
  5
35
  8
0
  6
BYBLOCK
 62
     0
 10
286.80984
 20
35.861075
 30
0.0
 11
287.164804
 21
35.861075
 31
0.0
  0
LINE
  5
36
  8
0
  6
BYBLOCK
 62
     0
 10
287.149804
 20
34.961075
 30
0.0
 11
287.149804
 21
35.711075
 31
0.0
  0
SOLID
  5
37
  8
0
  6
BYBLOCK
 62
     0
 10
287.124804
 20
34.961075
 30
0.0
 11
287.174804
 21
34.961075
 31
0.0
 12
287.149804
 22
34.811075
 32
0.0
 13
287.149804
 23
34.811075
 33
0.0
  0
SOLID
  5
38
  8
0
  6
BYBLOCK
 62
     0
 10
287.124804
 20
35.711075
 30
0.0
 11
287.174804
 21
35.711075
 31
0.0
 12
287.149804
 22
35.861075
 32
0.0
 13
287.149804
 23
35.861075
 33
0.0
  0
TEXT
  5
39
  8
0
  6
BYBLOCK
 62
     0
 10
287.112304
 20
35.216432
 30
0.0
 40
0.075
  1
1.05
 50
90.0
  7
ROMANC
 72
     1
 11
287.074804
 21
35.336075
 31
0.0
 73
     2
  0
POINT
  5
3A
  8
DEFPOINTS
  6
BYBLOCK
 62
     0
 10
286.64484
 20
34.811075
 30
0.0
  0
POINT
  5
3B
  8
DEFPOINTS
  6
BYBLOCK
 62
     0
 10
286.79484
 20
35.861075
 30
0.0
  0
POINT
  5
3C
  8
DEFPOINTS
  6
BYBLOCK
 62
     0
 10
287.149804
 20
35.861075
 30
0.0
  0
ENDBLK
  5
3D
  8
0
  0
BLOCK
  8
0
  2
*D2
 70
     1
 10
0.0
 20
0.0
 30
0.0
  3
*D2
  1

  0
LINE
  5
40
  8
0
  6
BYBLOCK
 62
     0
 10
286.80984
 20
35.861075
 30
0.0
 11
287.164804
 21
35.861075
 31
0.0
  0
LINE
  5
41
  8
0
  6
BYBLOCK
 62
     0
 10
286.394442
 20
36.227488
 30
0.0
 11
287.164804
 21
36.227488
 31
0.0
  0
LINE
  5
42
  8
0
  6
BYBLOCK
 62
     0
 10
287.149804
 20
35.711075
 30
0.0
 11
287.149804
 21
35.561075
 31
0.0
  0
LINE
  5
43
  8
0
  6
BYBLOCK
 62
     0
 10
287.149804
 20
36.377488
 30
0.0
 11
287.149804
 21
36.527488
 31
0.0
  0
SOLID
  5
44
  8
0
  6
BYBLOCK
 62
     0
 10
287.124804
 20
35.711075
 30
0.0
 11
287.174804
 21
35.711075
 31
0.0
 12
287.149804
 22
35.861075
 32
0.0
 13
287.149804
 23
35.861075
 33
0.0
  0
SOLID
  5
45
  8
0
  6
BYBLOCK
 62
     0
 10
287.124804
 20
36.377488
 30
0.0
 11
287.174804
 21
36.377488
 31
0.0
 12
287.149804
 22
36.227488
 32
0.0
 13
287.149804
 23
36.227488
 33
0.0
  0
LINE
  5
46
  8
0
  6
BYBLOCK
 62
     0
 10
287.149804
 20
35.861075
 30
0.0
 11
287.149804
 21
36.227488
 31
0.0
  0
TEXT
  5
47
  8
0
  6
BYBLOCK
 62
     0
 10
287.112304
 20
35.919282
 30
0.0
 40
0.075
  1
0.37
 50
90.0
  7
ROMANC
 72
     1
 11
287.074804
 21
36.044282
 31
0.0
 73
     2
  0
POINT
  5
48
  8
DEFPOINTS
  6
BYBLOCK
 62
     0
 10
286.79484
 20
35.861075
 30
0.0
  0
POINT
  5
49
  8
DEFPOINTS
  6
BYBLOCK
 62
     0
 10
286.379442
 20
36.227488
 30
0.0
  0
POINT
  5
4A
  8
DEFPOINTS
  6
BYBLOCK
 62
     0
 10
287.149804
 20
36.227488
 30
0.0
  0
ENDBLK
  5
4B
  8
0
  0
BLOCK
  8
0
  2
*D3
 70
     1
 10
0.0
 20
0.0
 30
0.0
  3
*D3
  1

  0
LINE
  5
4E
  8
0
  6
BYBLOCK
 62
     0
 10
286.465379
 20
36.227488
 30
0.0
 11
287.617606
 21
36.227488
 31
0.0
  0
LINE
  5
4F
  8
0
  6
BYBLOCK
 62
     0
 10
286.65984
 20
34.811075
 30
0.0
 11
287.617606
 21
34.811075
 31
0.0
  0
LINE
  5
50
  8
0
  6
BYBLOCK
 62
     0
 10
287.602606
 20
36.077488
 30
0.0
 11
287.602606
 21
34.961075
 31
0.0
  0
SOLID
  5
51
  8
0
  6
BYBLOCK
 62
     0
 10
287.577606
 20
36.077488
 30
0.0
 11
287.627606
 21
36.077488
 31
0.0
 12
287.602606
 22
36.227488
 32
0.0
 13
287.602606
 23
36.227488
 33
0.0
  0
SOLID
  5
52
  8
0
  6
BYBLOCK
 62
     0
 10
287.577606
 20
34.961075
 30
0.0
 11
287.627606
 21
34.961075
 31
0.0
 12
287.602606
 22
34.811075
 32
0.0
 13
287.602606
 23
34.811075
 33
0.0
  0
TEXT
  5
53
  8
0
  6
BYBLOCK
 62
     0
 10
287.565106
 20
35.399639
 30
0.0
 40
0.075
  1
1.42
 50
90.0
  7
ROMANC
 72
     1
 11
287.527606
 21
35.519282
 31
0.0
 73
     2
  0
POINT
  5
54
  8
DEFPOINTS
  6
BYBLOCK
 62
     0
 10
286.450379
 20
36.227488
 30
0.0
  0
POINT
  5
55
  8
DEFPOINTS
  6
BYBLOCK
 62
     0
 10
286.64484
 20
34.811075
 30
0.0
  0
POINT
  5
56
  8
DEFPOINTS
  6
BYBLOCK
 62
     0
 10
287.602606
 20
34.811075
 30
0.0
  0
ENDBLK
  5
57
  8
0
  0
BLOCK
  8
0
  2
*D4
 70
     1
 10
0.0
 20
0.0
 30
0.0
  3
*D4
  1

  0
LINE
  5
5A
  8
0
  6
BYBLOCK
 62
     0
 10
285.99484
 20
35.876075
 30
0.0
 11
285.99484
 21
36.905777
 31
0.0
  0
LINE
  5
5B
  8
0
  6
BYBLOCK
 62
     0
 10
286.79484
 20
35.876075
 30
0.0
 11
286.79484
 21
36.905777
 31
0.0
  0
LINE
  5
5C
  8
0
  6
BYBLOCK
 62
     0
 10
286.14484
 20
36.890777
 30
0.0
 11
286.64484
 21
36.890777
 31
0.0
  0
SOLID
  5
5D
  8
0
  6
BYBLOCK
 62
     0
 10
286.14484
 20
36.915777
 30
0.0
 11
286.14484
 21
36.865777
 31
0.0
 12
285.99484
 22
36.890777
 32
0.0
 13
285.99484
 23
36.890777
 33
0.0
  0
SOLID
  5
5E
  8
0
  6
BYBLOCK
 62
     0
 10
286.64484
 20
36.915777
 30
0.0
 11
286.64484
 21
36.865777
 31
0.0
 12
286.79484
 22
36.890777
 32
0.0
 13
286.79484
 23
36.890777
 33
0.0
  0
TEXT
  5
5F
  8
0
  6
BYBLOCK
 62
     0
 10
286.26984
 20
36.928277
 30
0.0
 40
0.075
  1
0.80
  7
ROMANC
 72
     1
 11
286.39484
 21
36.965777
 31
0.0
 73
     2
  0
POINT
  5
60
  8
DEFPOINTS
  6
BYBLOCK
 62
     0
 10
285.99484
 20
35.861075
 30
0.0
  0
POINT
  5
61
  8
DEFPOINTS
  6
BYBLOCK
 62
     0
 10
286.79484
 20
35.861075
 30
0.0
  0
POINT
  5
62
  8
DEFPOINTS
  6
BYBLOCK
 62
     0
 10
286.79484
 20
36.890777
 30
0.0
  0
ENDBLK
  5
63
  8
0
  0
ENDSEC
  0
SECTION
  2
ENTITIES
  0
LINE
  5
A4
  8
0
 10
291.895795
 20
29.897444
 30
0.0
 11
291.895795
 21
44.747444
 31
0.0
  0
TEXT
  5
A5
  8
0
 10
283.887846
 20
40.56142
 30
0.0
 40
0.3
  1
P = 38.3 dm
  7
ROMANC
  0
LINE
  5
A6
  8
0
 10
281.395795
 20
44.747444
 30
0.0
 11
281.395795
 21
29.897444
 31
0.0
  0
LINE
  5
A7
  8
0
 10
281.395795
 20
29.897444
 30
0.0
 11
291.895795
 21
29.897444
 31
0.0
  0
LINE
  5
A8
  8
0
 10
291.895795
 20
44.747444
 30
0.0
 11
281.395795
 21
44.747444
 31
0.0
  0
TEXT
  5
A9
  8
0
 10
287.122271
 20
41.564915
 30
0.0
 40
0.1
  1
2
  7
ROMANC
  0
TEXT
  5
AA
  8
0
 10
283.925768
 20
41.857589
 30
0.0
 40
0.3
  1
ESCALA  1:50
  7
ROMANC
  0
TEXT
  5
AB
  8
0
 10
283.925768
 20
42.343303
 30
0.0
 40
0.3
  1
TIPUS   NT91
  7
ROMANC
  0
TEXT
  5
AC
  8
0
 10
283.938862
 20
41.258999
 30
0.0
 40
0.3
  1
S = 91  dm
  7
ROMANC
  0
LINE
  5
DE
  8
0
  6
BYBLOCK
 62
     0
 10
285.99484
 20
35.876075
 30
0.0
 11
285.99484
 21
36.905777
 31
0.0
  0
LINE
  5
DF
  8
0
  6
BYBLOCK
 62
     0
 10
286.79484
 20
35.876075
 30
0.0
 11
286.79484
 21
36.905777
 31
0.0
  0
LINE
  5
E0
  8
0
  6
BYBLOCK
 62
     0
 10
286.14484
 20
36.890777
 30
0.0
 11
286.64484
 21
36.890777
 31
0.0
  0
SOLID
  5
E1
  8
0
  6
BYBLOCK
 62
     0
 10
286.14484
 20
36.915777
 30
0.0
 11
286.14484
 21
36.865777
 31
0.0
 12
285.99484
 22
36.890777
 32
0.0
 13
285.99484
 23
36.890777
 33
0.0
  0
SOLID
  5
E2
  8
0
  6
BYBLOCK
 62
     0
 10
286.64484
 20
36.915777
 30
0.0
 11
286.64484
 21
36.865777
 31
0.0
 12
286.79484
 22
36.890777
 32
0.0
 13
286.79484
 23
36.890777
 33
0.0
  0
TEXT
  5
E3
  8
0
  6
BYBLOCK
 62
     0
 10
286.26984
 20
36.928277
 30
0.0
 40
0.075
  1
0.80
  7
ROMANC
 72
     1
 11
286.39484
 21
36.965777
 31
0.0
 73
     2
  0
POINT
  5
E4
  8
DEFPOINTS
  6
BYBLOCK
 62
     0
 10
285.99484
 20
35.861075
 30
0.0
  0
POINT
  5
E5
  8
DEFPOINTS
  6
BYBLOCK
 62
     0
 10
286.79484
 20
35.861075
 30
0.0
  0
POINT
  5
E6
  8
DEFPOINTS
  6
BYBLOCK
 62
     0
 10
286.79484
 20
36.890777
 30
0.0
  0
ARC
  5
E7
  8
0
 10
286.451879
 20
35.861074
 30
0.0
 40
0.332961
 50
0.121416
 51
24.122722
  0
ARC
  5
E8
  8
0
 10
286.424216
 20
35.848688
 30
0.0
 40
0.36327
 50
24.122653
 51
47.231164
  0
ARC
  5
E9
  8
0
 10
286.406391
 20
35.829414
 30
0.0
 40
0.389523
 50
47.23151
 51
69.036196
  0
ARC
  5
EA
  8
0
 10
286.394839
 20
35.799275
 30
0.0
 40
0.4218
 50
69.035565
 51
89.999863
  0
ARC
  5
EB
  8
0
 10
286.394841
 20
35.799273
 30
0.0
 40
0.421802
 50
90.000069
 51
110.964368
  0
ARC
  5
EC
  8
0
 10
286.383288
 20
35.829414
 30
0.0
 40
0.389523
 50
110.963804
 51
132.76849
  0
ARC
  5
ED
  8
0
 10
286.365463
 20
35.848688
 30
0.0
 40
0.36327
 50
132.768836
 51
155.877347
  0
ARC
  5
EE
  8
0
 10
286.3378
 20
35.861074
 30
0.0
 40
0.332961
 50
155.877278
 51
179.878584
  0
LINE
  5
EF
  8
0
 10
286.00484
 20
35.86178
 30
0.0
 11
286.153512
 21
34.821075
 31
0.0
  0
LINE
  5
F0
  8
0
 10
286.153512
 20
34.821075
 30
0.0
 11
286.636167
 21
34.821075
 31
0.0
  0
LINE
  5
F1
  8
0
 10
286.636167
 20
34.821075
 30
0.0
 11
286.784839
 21
35.86178
 31
0.0
  0
ARC
  5
F2
  8
0
 10
286.451881
 20
35.861073
 30
0.0
 40
0.352959
 50
0.00026
 51
24.12306
  0
ARC
  5
F3
  8
0
 10
286.424217
 20
35.848689
 30
0.0
 40
0.383269
 50
24.122502
 51
47.231014
  0
ARC
  5
F4
  8
0
 10
286.406392
 20
35.829414
 30
0.0
 40
0.409522
 50
47.231492
 51
69.036179
  0
ARC
  5
F5
  8
0
 10
286.394839
 20
35.799275
 30
0.0
 40
0.4418
 50
69.035564
 51
89.999862
  0
ARC
  5
F6
  8
0
 10
286.394841
 20
35.799272
 30
0.0
 40
0.441803
 50
90.000073
 51
110.964371
  0
ARC
  5
F7
  8
0
 10
286.383287
 20
35.829414
 30
0.0
 40
0.409522
 50
110.963821
 51
132.768508
  0
ARC
  5
F8
  8
0
 10
286.365462
 20
35.848689
 30
0.0
 40
0.383269
 50
132.768986
 51
155.877498
  0
ARC
  5
F9
  8
0
 10
286.341157
 20
35.860603
 30
0.0
 40
0.356219
 50
156.028673
 51
180.151473
  0
LINE
  5
FA
  8
0
 10
285.98494
 20
35.859661
 30
0.0
 11
286.136167
 21
34.801075
 31
0.0
  0
LINE
  5
FB
  8
0
 10
286.136167
 20
34.801075
 30
0.0
 11
286.653512
 21
34.801075
 31
0.0
  0
LINE
  5
FC
  8
0
 10
286.653512
 20
34.801075
 30
0.0
 11
286.80484
 21
35.861075
 31
0.0
  0
LINE
  5
FD
  8
0
  6
BYBLOCK
 62
     0
 10
286.465379
 20
36.227488
 30
0.0
 11
287.617606
 21
36.227488
 31
0.0
  0
LINE
  5
FE
  8
0
  6
BYBLOCK
 62
     0
 10
286.65984
 20
34.811075
 30
0.0
 11
287.617606
 21
34.811075
 31
0.0
  0
LINE
  5
FF
  8
0
  6
BYBLOCK
 62
     0
 10
287.602606
 20
36.077488
 30
0.0
 11
287.602606
 21
34.961075
 31
0.0
  0
SOLID
  5
100
  8
0
  6
BYBLOCK
 62
     0
 10
287.577606
 20
36.077488
 30
0.0
 11
287.627606
 21
36.077488
 31
0.0
 12
287.602606
 22
36.227488
 32
0.0
 13
287.602606
 23
36.227488
 33
0.0
  0
SOLID
  5
101
  8
0
  6
BYBLOCK
 62
     0
 10
287.577606
 20
34.961075
 30
0.0
 11
287.627606
 21
34.961075
 31
0.0
 12
287.602606
 22
34.811075
 32
0.0
 13
287.602606
 23
34.811075
 33
0.0
  0
TEXT
  5
102
  8
0
  6
BYBLOCK
 62
     0
 10
287.565106
 20
35.399639
 30
0.0
 40
0.075
  1
1.42
 50
90.0
  7
ROMANC
 72
     1
 11
287.527606
 21
35.519282
 31
0.0
 73
     2
  0
POINT
  5
103
  8
DEFPOINTS
  6
BYBLOCK
 62
     0
 10
286.450379
 20
36.227488
 30
0.0
  0
POINT
  5
104
  8
DEFPOINTS
  6
BYBLOCK
 62
     0
 10
286.64484
 20
34.811075
 30
0.0
  0
POINT
  5
105
  8
DEFPOINTS
  6
BYBLOCK
 62
     0
 10
287.602606
 20
34.811075
 30
0.0
  0
ARC
  5
106
  8
0
 10
286.451881
 20
35.861075
 30
0.0
 40
0.342959
 50
359.999993
 51
24.122793
  0
ARC
  5
107
  8
0
 10
286.424216
 20
35.848686
 30
0.0
 40
0.373271
 50
24.122887
 51
47.231398
  0
ARC
  5
108
  8
0
 10
286.406391
 20
35.829415
 30
0.0
 40
0.399522
 50
47.231401
 51
69.036087
  0
ARC
  5
109
  8
0
 10
286.394839
 20
35.799275
 30
0.0
 40
0.4318
 50
69.035564
 51
89.999862
  0
ARC
  5
10A
  8
0
 10
286.394841
 20
35.799272
 30
0.0
 40
0.431803
 50
90.000071
 51
110.964369
  0
ARC
  5
10B
  8
0
 10
286.383288
 20
35.829415
 30
0.0
 40
0.399522
 50
110.963913
 51
132.768599
  0
ARC
  5
10C
  8
0
 10
286.365463
 20
35.848686
 30
0.0
 40
0.373271
 50
132.768602
 51
155.877113
  0
ARC
  5
10D
  8
0
 10
286.337798
 20
35.861077
 30
0.0
 40
0.342958
 50
155.877598
 51
180.000398
  0
LINE
  5
10E
  8
0
 10
285.99484
 20
35.861075
 30
0.0
 11
286.14484
 21
34.811075
 31
0.0
  0
LINE
  5
10F
  8
0
 10
286.14484
 20
34.811075
 30
0.0
 11
286.64484
 21
34.811075
 31
0.0
  0
LINE
  5
110
  8
0
 10
286.64484
 20
34.811075
 30
0.0
 11
286.79484
 21
35.861075
 31
0.0
  0
LINE
  5
111
  8
0
  6
BYBLOCK
 62
     0
 10
286.80984
 20
35.861075
 30
0.0
 11
287.164804
 21
35.861075
 31
0.0
  0
LINE
  5
112
  8
0
  6
BYBLOCK
 62
     0
 10
286.394442
 20
36.227488
 30
0.0
 11
287.164804
 21
36.227488
 31
0.0
  0
LINE
  5
113
  8
0
  6
BYBLOCK
 62
     0
 10
287.149804
 20
35.711075
 30
0.0
 11
287.149804
 21
35.561075
 31
0.0
  0
LINE
  5
114
  8
0
  6
BYBLOCK
 62
     0
 10
287.149804
 20
36.377488
 30
0.0
 11
287.149804
 21
36.527488
 31
0.0
  0
SOLID
  5
115
  8
0
  6
BYBLOCK
 62
     0
 10
287.124804
 20
35.711075
 30
0.0
 11
287.174804
 21
35.711075
 31
0.0
 12
287.149804
 22
35.861075
 32
0.0
 13
287.149804
 23
35.861075
 33
0.0
  0
SOLID
  5
116
  8
0
  6
BYBLOCK
 62
     0
 10
287.124804
 20
36.377488
 30
0.0
 11
287.174804
 21
36.377488
 31
0.0
 12
287.149804
 22
36.227488
 32
0.0
 13
287.149804
 23
36.227488
 33
0.0
  0
LINE
  5
117
  8
0
  6
BYBLOCK
 62
     0
 10
287.149804
 20
35.861075
 30
0.0
 11
287.149804
 21
36.227488
 31
0.0
  0
TEXT
  5
118
  8
0
  6
BYBLOCK
 62
     0
 10
287.112304
 20
35.919282
 30
0.0
 40
0.075
  1
0.37
 50
90.0
  7
ROMANC
 72
     1
 11
287.074804
 21
36.044282
 31
0.0
 73
     2
  0
POINT
  5
119
  8
DEFPOINTS
  6
BYBLOCK
 62
     0
 10
286.79484
 20
35.861075
 30
0.0
  0
POINT
  5
11A
  8
DEFPOINTS
  6
BYBLOCK
 62
     0
 10
286.379442
 20
36.227488
 30
0.0
  0
POINT
  5
11B
  8
DEFPOINTS
  6
BYBLOCK
 62
     0
 10
287.149804
 20
36.227488
 30
0.0
  0
LINE
  5
11C
  8
0
  6
BYBLOCK
 62
     0
 10
286.65984
 20
34.811075
 30
0.0
 11
287.164804
 21
34.811075
 31
0.0
  0
LINE
  5
11D
  8
0
  6
BYBLOCK
 62
     0
 10
286.80984
 20
35.861075
 30
0.0
 11
287.164804
 21
35.861075
 31
0.0
  0
LINE
  5
11E
  8
0
  6
BYBLOCK
 62
     0
 10
287.149804
 20
34.961075
 30
0.0
 11
287.149804
 21
35.711075
 31
0.0
  0
SOLID
  5
11F
  8
0
  6
BYBLOCK
 62
     0
 10
287.124804
 20
34.961075
 30
0.0
 11
287.174804
 21
34.961075
 31
0.0
 12
287.149804
 22
34.811075
 32
0.0
 13
287.149804
 23
34.811075
 33
0.0
  0
SOLID
  5
120
  8
0
  6
BYBLOCK
 62
     0
 10
287.124804
 20
35.711075
 30
0.0
 11
287.174804
 21
35.711075
 31
0.0
 12
287.149804
 22
35.861075
 32
0.0
 13
287.149804
 23
35.861075
 33
0.0
  0
TEXT
  5
121
  8
0
  6
BYBLOCK
 62
     0
 10
287.112304
 20
35.216432
 30
0.0
 40
0.075
  1
1.05
 50
90.0
  7
ROMANC
 72
     1
 11
287.074804
 21
35.336075
 31
0.0
 73
     2
  0
POINT
  5
122
  8
DEFPOINTS
  6
BYBLOCK
 62
     0
 10
286.64484
 20
34.811075
 30
0.0
  0
POINT
  5
123
  8
DEFPOINTS
  6
BYBLOCK
 62
     0
 10
286.79484
 20
35.861075
 30
0.0
  0
POINT
  5
124
  8
DEFPOINTS
  6
BYBLOCK
 62
     0
 10
287.149804
 20
35.861075
 30
0.0
  0
LINE
  5
125
  8
0
  6
BYBLOCK
 62
     0
 10
286.14484
 20
34.796075
 30
0.0
 11
286.14484
 21
34.470516
 31
0.0
  0
LINE
  5
126
  8
0
  6
BYBLOCK
 62
     0
 10
286.64484
 20
34.796075
 30
0.0
 11
286.64484
 21
34.470516
 31
0.0
  0
LINE
  5
127
  8
0
  6
BYBLOCK
 62
     0
 10
285.99484
 20
34.485516
 30
0.0
 11
285.84484
 21
34.485516
 31
0.0
  0
LINE
  5
128
  8
0
  6
BYBLOCK
 62
     0
 10
286.79484
 20
34.485516
 30
0.0
 11
286.94484
 21
34.485516
 31
0.0
  0
SOLID
  5
129
  8
0
  6
BYBLOCK
 62
     0
 10
285.99484
 20
34.510516
 30
0.0
 11
285.99484
 21
34.460516
 31
0.0
 12
286.14484
 22
34.485516
 32
0.0
 13
286.14484
 23
34.485516
 33
0.0
  0
SOLID
  5
12A
  8
0
  6
BYBLOCK
 62
     0
 10
286.79484
 20
34.510516
 30
0.0
 11
286.79484
 21
34.460516
 31
0.0
 12
286.64484
 22
34.485516
 32
0.0
 13
286.64484
 23
34.485516
 33
0.0
  0
LINE
  5
12B
  8
0
  6
BYBLOCK
 62
     0
 10
286.14484
 20
34.485516
 30
0.0
 11
286.64484
 21
34.485516
 31
0.0
  0
TEXT
  5
12C
  8
0
  6
BYBLOCK
 62
     0
 10
286.26984
 20
34.523016
 30
0.0
 40
0.075
  1
0.50
  7
ROMANC
 72
     1
 11
286.39484
 21
34.560516
 31
0.0
 73
     2
  0
POINT
  5
12D
  8
DEFPOINTS
  6
BYBLOCK
 62
     0
 10
286.14484
 20
34.811075
 30
0.0
  0
POINT
  5
12E
  8
DEFPOINTS
  6
BYBLOCK
 62
     0
 10
286.64484
 20
34.811075
 30
0.0
  0
POINT
  5
12F
  8
DEFPOINTS
  6
BYBLOCK
 62
     0
 10
286.64484
 20
34.485516
 30
0.0
  0
ARC
  5
130
  8
0
 10
286.337796
 20
35.861074
 30
0.0
 40
0.342956
 50
179.999811
 51
196.260059
  0
ENDSEC
  0
EOF
