  0
SECTION
  2
HEADER
  9
$ACADVER
  1
AC1009
  9
$INSBASE
 10
260.622869
 20
11.11924
 30
0.0
  9
$EXTMIN
 10
140.175068
 20
-27.532393
 30
0.0
  9
$EXTMAX
 10
351.54669
 20
43.022959
 30
0.0
  9
$LIMMIN
 10
0.0
 20
0.0
  9
$LIMMAX
 10
410.0
 20
287.0
  9
$ORTHOMODE
 70
     0
  9
$REGENMODE
 70
     1
  9
$FILLMODE
 70
     1
  9
$QTEXTMODE
 70
     0
  9
$MIRRTEXT
 70
     1
  9
$DRAGMODE
 70
     2
  9
$LTSCALE
 40
25.0
  9
$OSMODE
 70
    32
  9
$ATTMODE
 70
     1
  9
$TEXTSIZE
 40
0.1
  9
$TRACEWID
 40
1.0
  9
$TEXTSTYLE
  7
ROMANC
  9
$CLAYER
  8
0
  9
$CELTYPE
  6
BYLAYER
  9
$CECOLOR
 62
   256
  9
$DIMSCALE
 40
0.0
  9
$DIMASZ
 40
0.0
  9
$DIMEXO
 40
0.1
  9
$DIMDLI
 40
7.0
  9
$DIMRND
 40
0.0
  9
$DIMDLE
 40
0.0
  9
$DIMEXE
 40
1.8
  9
$DIMTP
 40
0.0
  9
$DIMTM
 40
0.0
  9
$DIMTXT
 40
0.03
  9
$DIMCEN
 40
1.5
  9
$DIMTSZ
 40
1.0
  9
$DIMTOL
 70
     0
  9
$DIMLIM
 70
     0
  9
$DIMTIH
 70
     0
  9
$DIMTOH
 70
     0
  9
$DIMSE1
 70
     0
  9
$DIMSE2
 70
     0
  9
$DIMTAD
 70
     0
  9
$DIMZIN
 70
     0
  9
$DIMBLK
  1

  9
$DIMASO
 70
     1
  9
$DIMSHO
 70
     0
  9
$DIMPOST
  1

  9
$DIMAPOST
  1

  9
$DIMALT
 70
     0
  9
$DIMALTD
 70
     2
  9
$DIMALTF
 40
25.4
  9
$DIMLFAC
 40
1.0
  9
$DIMTOFL
 70
     1
  9
$DIMTVP
 40
0.0
  9
$DIMTIX
 70
     1
  9
$DIMSOXD
 70
     0
  9
$DIMSAH
 70
     0
  9
$DIMBLK1
  1

  9
$DIMBLK2
  1

  9
$DIMSTYLE
  2
*UNNAMED
  9
$DIMCLRD
 70
     0
  9
$DIMCLRE
 70
     0
  9
$DIMCLRT
 70
     0
  9
$DIMTFAC
 40
116.666667
  9
$DIMGAP
 40
0.09
  9
$LUNITS
 70
     2
  9
$LUPREC
 70
     2
  9
$SKETCHINC
 40
1.0
  9
$FILLETRAD
 40
0.0
  9
$AUNITS
 70
     0
  9
$AUPREC
 70
     0
  9
$MENU
  1
acad
  9
$ELEVATION
 40
0.0
  9
$PELEVATION
 40
0.0
  9
$THICKNESS
 40
0.0
  9
$LIMCHECK
 70
     0
  9
$BLIPMODE
 70
     0
  9
$CHAMFERA
 40
0.0
  9
$CHAMFERB
 40
0.0
  9
$SKPOLY
 70
     0
  9
$TDCREATE
 40
2449967.727299884
  9
$TDUPDATE
 40
2450207.469182523
  9
$TDINDWG
 40
0.0001449074
  9
$TDUSRTIMER
 40
0.0001449074
  9
$USRTIMER
 70
     1
  9
$ANGBASE
 50
0.0
  9
$ANGDIR
 70
     0
  9
$PDMODE
 70
     0
  9
$PDSIZE
 40
0.0
  9
$PLINEWID
 40
0.0
  9
$COORDS
 70
     0
  9
$SPLFRAME
 70
     0
  9
$SPLINETYPE
 70
     6
  9
$SPLINESEGS
 70
     8
  9
$ATTDIA
 70
     0
  9
$ATTREQ
 70
     1
  9
$HANDLING
 70
     0
  9
$HANDSEED
  5
0
  9
$SURFTAB1
 70
     6
  9
$SURFTAB2
 70
     6
  9
$SURFTYPE
 70
     6
  9
$SURFU
 70
     6
  9
$SURFV
 70
     6
  9
$UCSNAME
  2

  9
$UCSORG
 10
0.0
 20
0.0
 30
0.0
  9
$UCSXDIR
 10
1.0
 20
0.0
 30
0.0
  9
$UCSYDIR
 10
0.0
 20
1.0
 30
0.0
  9
$PUCSNAME
  2

  9
$PUCSORG
 10
0.0
 20
0.0
 30
0.0
  9
$PUCSXDIR
 10
1.0
 20
0.0
 30
0.0
  9
$PUCSYDIR
 10
0.0
 20
1.0
 30
0.0
  9
$USERI1
 70
     0
  9
$USERI2
 70
     0
  9
$USERI3
 70
     0
  9
$USERI4
 70
     0
  9
$USERI5
 70
     0
  9
$USERR1
 40
0.0
  9
$USERR2
 40
0.0
  9
$USERR3
 40
0.0
  9
$USERR4
 40
0.0
  9
$USERR5
 40
0.0
  9
$WORLDVIEW
 70
     1
  9
$SHADEDGE
 70
     3
  9
$SHADEDIF
 70
    70
  9
$TILEMODE
 70
     1
  9
$MAXACTVP
 70
    16
  9
$PINSBASE
 10
0.0
 20
0.0
 30
0.0
  9
$PLIMCHECK
 70
     0
  9
$PEXTMIN
 10
1.000000E+20
 20
1.000000E+20
 30
1.000000E+20
  9
$PEXTMAX
 10
-1.000000E+20
 20
-1.000000E+20
 30
-1.000000E+20
  9
$PLIMMIN
 10
0.0
 20
0.0
  9
$PLIMMAX
 10
12.0
 20
9.0
  9
$UNITMODE
 70
     0
  9
$VISRETAIN
 70
     0
  9
$PLINEGEN
 70
     0
  9
$PSLTSCALE
 70
     0
  9
$TREEDEPTH
 70
  3020
  9
$DWGCODEPAGE
  3
iso8859-1
  0
ENDSEC
  0
SECTION
  2
TABLES
  0
TABLE
  2
VPORT
 70
     1
  0
VPORT
  2
*ACTIVE
 70
     0
 10
0.0
 20
0.0
 11
1.0
 21
1.0
 12
253.344808
 22
20.215098
 13
0.0
 23
0.0
 14
1.0
 24
1.0
 15
10.0
 25
10.0
 16
0.0
 26
0.0
 36
1.0
 17
0.0
 27
0.0
 37
0.0
 40
21.549165
 41
1.65
 42
50.0
 43
0.0
 44
0.0
 50
0.0
 51
0.0
 71
     0
 72
   100
 73
     1
 74
     0
 75
     0
 76
     0
 77
     0
 78
     1
  0
ENDTAB
  0
TABLE
  2
LTYPE
 70
     1
  0
LTYPE
  2
CONTINUOUS
 70
    64
  3
Solid line
 72
    65
 73
     0
 40
0.0
  0
ENDTAB
  0
TABLE
  2
LAYER
 70
     1
  0
LAYER
  2
0
 70
    64
 62
     7
  6
CONTINUOUS
  0
ENDTAB
  0
TABLE
  2
STYLE
 70
     2
  0
STYLE
  2
STANDARD
 70
     0
 40
0.0
 41
1.0
 50
0.0
 71
     0
 42
0.1
  3
txt
  4

  0
STYLE
  2
ROMANC
 70
    64
 40
0.0
 41
1.0
 50
0.0
 71
     0
 42
0.1
  3
romanc
  4

  0
ENDTAB
  0
TABLE
  2
VIEW
 70
     0
  0
ENDTAB
  0
TABLE
  2
UCS
 70
     0
  0
ENDTAB
  0
TABLE
  2
APPID
 70
     1
  0
APPID
  2
ACAD
 70
    64
  0
ENDTAB
  0
TABLE
  2
DIMSTYLE
 70
     0
  0
ENDTAB
  0
ENDSEC
  0
SECTION
  2
BLOCKS
  0
ENDSEC
  0
SECTION
  2
ENTITIES
  0
LINE
  8
0
 10
260.622869
 20
25.96924
 30
0.0
 11
260.622869
 21
11.11924
 31
0.0
  0
LINE
  8
0
 10
264.973942
 20
16.114505
 30
0.0
 11
265.100105
 21
16.252969
 31
0.0
  0
LINE
  8
0
 10
265.023194
 20
16.170802
 30
0.0
 11
265.973194
 21
16.170802
 31
0.0
  0
LINE
  8
0
 10
265.023194
 20
16.606196
 30
0.0
 11
265.023194
 21
16.170802
 31
0.0
  0
TEXT
  8
0
 10
265.334616
 20
15.910019
 30
0.0
 40
0.1
  1
0.95
  7
ROMANC
  0
TEXT
  8
0
 10
266.524693
 20
17.157337
 30
0.0
 40
0.1
  1
0.95
  7
ROMANC
  0
LINE
  8
0
 10
265.923942
 20
16.114505
 30
0.0
 11
266.050105
 21
16.252969
 31
0.0
  0
LINE
  8
0
 10
266.359336
 20
16.549899
 30
0.0
 11
266.485499
 21
16.688363
 31
0.0
  0
LINE
  8
0
 10
266.359336
 20
17.499899
 30
0.0
 11
266.485499
 21
17.638363
 31
0.0
  0
LINE
  8
0
 10
265.973194
 20
17.556196
 30
0.0
 11
266.408588
 21
17.556196
 31
0.0
  0
LINE
  8
0
 10
265.973194
 20
16.606196
 30
0.0
 11
266.408588
 21
16.606196
 31
0.0
  0
LINE
  8
0
 10
265.973194
 20
16.606196
 30
0.0
 11
265.973194
 21
16.170802
 31
0.0
  0
LINE
  8
0
 10
266.408588
 20
16.606196
 30
0.0
 11
266.408588
 21
17.556196
 31
0.0
  0
TEXT
  8
0
 10
263.165936
 20
22.480795
 30
0.0
 40
0.3
  1
S =  90 dm
  7
ROMANC
  0
TEXT
  8
0
 10
263.152842
 20
23.565099
 30
0.0
 40
0.3
  1
TIPUS   NT90
  7
ROMANC
  0
TEXT
  8
0
 10
263.152842
 20
23.079385
 30
0.0
 40
0.3
  1
ESCALA  1:50
  7
ROMANC
  0
TEXT
  8
0
 10
263.11492
 20
21.783216
 30
0.0
 40
0.3
  1
P = 38 dm
  7
ROMANC
  0
TEXT
  8
0
 10
266.349345
 20
22.786711
 30
0.0
 40
0.1
  1
2
  7
ROMANC
  0
LINE
  8
0
 10
260.622869
 20
11.11924
 30
0.0
 11
271.122869
 21
11.11924
 31
0.0
  0
LINE
  8
0
 10
271.122869
 20
25.96924
 30
0.0
 11
260.622869
 21
25.96924
 31
0.0
  0
LINE
  8
0
 10
271.122869
 20
11.11924
 30
0.0
 11
271.122869
 21
25.96924
 31
0.0
  0
LINE
  8
0
 10
265.973194
 20
16.606196
 30
0.0
 11
265.973194
 21
17.556196
 31
0.0
  0
LINE
  8
0
 10
265.973194
 20
17.556196
 30
0.0
 11
265.023194
 21
17.556196
 31
0.0
  0
LINE
  8
0
 10
265.023194
 20
17.556196
 30
0.0
 11
265.023194
 21
16.606196
 31
0.0
  0
LINE
  8
0
 10
265.023194
 20
16.606196
 30
0.0
 11
265.973194
 21
16.606196
 31
0.0
  0
LINE
  8
0
 10
265.983194
 20
16.596196
 30
0.0
 11
265.983194
 21
17.566196
 31
0.0
  0
LINE
  8
0
 10
265.983194
 20
17.566196
 30
0.0
 11
265.013194
 21
17.566196
 31
0.0
  0
LINE
  8
0
 10
265.013194
 20
17.566196
 30
0.0
 11
265.013194
 21
16.596196
 31
0.0
  0
LINE
  8
0
 10
265.013194
 20
16.596196
 30
0.0
 11
265.983194
 21
16.596196
 31
0.0
  0
LINE
  8
0
 10
265.963194
 20
16.616196
 30
0.0
 11
265.963194
 21
17.546196
 31
0.0
  0
LINE
  8
0
 10
265.963194
 20
17.546196
 30
0.0
 11
265.033194
 21
17.546196
 31
0.0
  0
LINE
  8
0
 10
265.033194
 20
17.546196
 30
0.0
 11
265.033194
 21
16.616196
 31
0.0
  0
LINE
  8
0
 10
265.033194
 20
16.616196
 30
0.0
 11
265.963194
 21
16.616196
 31
0.0
  0
ENDSEC
  0
EOF
