  0
SECTION
  2
HEADER
  9
$ACADVER
  1
AC1009
  9
$INSBASE
 10
0.0
 20
0.0
 30
0.0
  9
$EXTMIN
 10
281.396000
 20
29.897000
 30
-2147483.648000
  9
$EXTMAX
 10
291.896000
 20
44.747000
 30
0.000000
  9
$LIMMIN
 10
280.396000
 20
28.897000
  9
$LIMMAX
 10
292.896000
 20
43.747000
  9
$ORTHOMODE
 70
     0
  9
$REGENMODE
 70
     1
  9
$FILLMODE
 70
     1
  9
$QTEXTMODE
 70
     0
  9
$MIRRTEXT
 70
     1
  9
$DRAGMODE
 70
     2
  9
$LTSCALE
 40
1.0
  9
$OSMODE
 70
     0
  9
$ATTMODE
 70
     1
  9
$TEXTSIZE
 40
0.2
  9
$TRACEWID
 40
0.05
  9
$TEXTSTYLE
  7
STANDARD
  9
$CLAYER
  8
0
  9
$CELTYPE
  6
BYLAYER
  9
$CECOLOR
 62
   256
  9
$DIMSCALE
 40
1.0
  9
$DIMASZ
 40
0.18
  9
$DIMEXO
 40
0.0625
  9
$DIMDLI
 40
0.38
  9
$DIMRND
 40
0.0
  9
$DIMDLE
 40
0.0
  9
$DIMEXE
 40
0.18
  9
$DIMTP
 40
0.0
  9
$DIMTM
 40
0.0
  9
$DIMTXT
 40
0.18
  9
$DIMCEN
 40
0.09
  9
$DIMTSZ
 40
0.0
  9
$DIMTOL
 70
     0
  9
$DIMLIM
 70
     0
  9
$DIMTIH
 70
     1
  9
$DIMTOH
 70
     1
  9
$DIMSE1
 70
     0
  9
$DIMSE2
 70
     0
  9
$DIMTAD
 70
     0
  9
$DIMZIN
 70
     0
  9
$DIMBLK
  1

  9
$DIMASO
 70
     1
  9
$DIMSHO
 70
     1
  9
$DIMPOST
  1

  9
$DIMAPOST
  1

  9
$DIMALT
 70
     0
  9
$DIMALTD
 70
     2
  9
$DIMALTF
 40
25.4
  9
$DIMLFAC
 40
1.0
  9
$DIMTOFL
 70
     0
  9
$DIMTVP
 40
0.0
  9
$DIMTIX
 70
     0
  9
$DIMSOXD
 70
     0
  9
$DIMSAH
 70
     0
  9
$DIMBLK1
  1

  9
$DIMBLK2
  1

  9
$DIMSTYLE
  2
*UNNAMED
  9
$DIMCLRD
 70
     0
  9
$DIMCLRE
 70
     0
  9
$DIMCLRT
 70
     0
  9
$DIMTFAC
 40
1.0
  9
$DIMGAP
 40
0.09
  9
$LUNITS
 70
     2
  9
$LUPREC
 70
     4
  9
$AXISMODE
 70
     0
  9
$AXISUNIT
 10
0.0
 20
0.0
  9
$SKETCHINC
 40
0.1
  9
$FILLETRAD
 40
0.0
  9
$AUNITS
 70
     0
  9
$AUPREC
 70
     0
  9
$MENU
  1
acad
  9
$ELEVATION
 40
0.0
  9
$PELEVATION
 40
0.0
  9
$THICKNESS
 40
0.0
  9
$LIMCHECK
 70
     0
  9
$BLIPMODE
 70
     1
  9
$CHAMFERA
 40
0.0
  9
$CHAMFERB
 40
0.0
  9
$SKPOLY
 70
     0
  9
$TDCREATE
 40
2448315.373408102
  9
$TDUPDATE
 40
2448315.373408102
  9
$TDINDWG
 40
0.0000000000
  9
$TDUSRTIMER
 40
0.0000000000
  9
$USRTIMER
 70
     1
  9
$ANGBASE
 50
0.0
  9
$ANGDIR
 70
     0
  9
$PDMODE
 70
     0
  9
$PDSIZE
 40
0.0
  9
$PLINEWID
 40
0.0
  9
$COORDS
 70
     0
  9
$SPLFRAME
 70
     0
  9
$SPLINETYPE
 70
     6
  9
$SPLINESEGS
 70
     8
  9
$ATTDIA
 70
     0
  9
$ATTREQ
 70
     1
  9
$HANDLING
 70
     0
  9
$HANDSEED
  5
0
  9
$SURFTAB1
 70
     6
  9
$SURFTAB2
 70
     6
  9
$SURFTYPE
 70
     6
  9
$SURFU
 70
     6
  9
$SURFV
 70
     6
  9
$UCSNAME
  2

  9
$UCSORG
 10
0.0
 20
0.0
 30
0.0
  9
$UCSXDIR
 10
1.0
 20
0.0
 30
0.0
  9
$UCSYDIR
 10
0.0
 20
1.0
 30
0.0
  9
$PUCSNAME
  2

  9
$PUCSORG
 10
0.0
 20
0.0
 30
0.0
  9
$PUCSXDIR
 10
1.0
 20
0.0
 30
0.0
  9
$PUCSYDIR
 10
0.0
 20
1.0
 30
0.0
  9
$USERI1
 70
     0
  9
$USERI2
 70
     0
  9
$USERI3
 70
     0
  9
$USERI4
 70
     0
  9
$USERI5
 70
     0
  9
$USERR1
 40
0.0
  9
$USERR2
 40
0.0
  9
$USERR3
 40
0.0
  9
$USERR4
 40
0.0
  9
$USERR5
 40
0.0
  9
$WORLDVIEW
 70
     1
  9
$SHADEDGE
 70
     3
  9
$SHADEDIF
 70
    70
  9
$TILEMODE
 70
     1
  9
$MAXACTVP
 70
    16
  9
$PINSBASE
 10
0.0
 20
0.0
 30
0.0
  9
$PLIMCHECK
 70
     0
  9
$PEXTMIN
 10
1.000000E+20
 20
1.000000E+20
 30
1.000000E+20
  9
$PEXTMAX
 10
-1.000000E+20
 20
-1.000000E+20
 30
-1.000000E+20
  9
$PLIMMIN
 10
0.0
 20
0.0
  9
$PLIMMAX
 10
12.0
 20
9.0
  9
$UNITMODE
 70
     0
  9
$VISRETAIN
 70
     0
  0
ENDSEC
  0
SECTION
  2
TABLES
  0
TABLE
  2
LTYPE
 70
    1
  0
LTYPE
  2
CONTINUOUS
 70
    64
3
Solid line
 72
    65
 73
0
 40
0.000000
  0
ENDTAB
  0
TABLE
  2
LAYER
 70
    8
  0
LAYER
  2
0
 70
    64
 62
7
  6
CONTINUOUS
  0
LAYER
  2
1
 70
    64
 62
7
  6
CONTINUOUS
  0
LAYER
  2
7
 70
    64
 62
7
  6
CONTINUOUS
  0
LAYER
  2
8
 70
    64
 62
7
  6
CONTINUOUS
  0
LAYER
  2
9
 70
    64
 62
7
  6
CONTINUOUS
  0
LAYER
  2
22
 70
    64
 62
7
  6
CONTINUOUS
  0
LAYER
  2
25
 70
    64
 62
7
  6
CONTINUOUS
  0
LAYER
  2
0
 70
    64
 62
7
  6
CONTINUOUS
  0
ENDTAB
  0
TABLE
  2
STYLE
 70
    1
  0
STYLE
  2
ROMANC
70
     0
 40
0.0
 41
1.0
 50
0.0
 71
     0
 42
0.2
  3
ROMANC
  4

  0
ENDTAB
  0
ENDSEC
  0
SECTION
  2
BLOCKS
  0
ENDSEC
  0
SECTION
  2
ENTITIES
  0
TEXT
  8
0
  6
CONTINUOUS
 40
0.100000
 10
287.008000
 20
41.338000
  1
2
  7
ROMANC
  0
TEXT
  8
0
  6
CONTINUOUS
 40
0.300000
 10
283.926000
 20
41.768000
  1
ESCALA  1:50
  7
ROMANC
  0
POLYLINE
  8
0
  6
CONTINUOUS
 66
     1
 70
     1
  0
VERTEX
  8
0
  6
CONTINUOUS
 10
281.396000
 20
44.747000
  0
VERTEX
  8
0
  6
CONTINUOUS
 10
291.896000
 20
44.747000
  0
VERTEX
  8
0
  6
CONTINUOUS
 10
291.896000
 20
29.897000
  0
VERTEX
  8
0
  6
CONTINUOUS
 10
281.396000
 20
29.897000
  0
SEQEND
  8
0
  0
TEXT
  8
0
  6
CONTINUOUS
 40
0.300000
 10
283.945000
 20
41.099000
  1
S = 881 dm
  7
ROMANC
  0
TEXT
  8
0
  6
CONTINUOUS
 40
0.300000
 10
283.922000
 20
40.529000
  1
P = 124 dm
  7
ROMANC
  0
TEXT
  8
0
  6
CONTINUOUS
 40
0.300000
 10
283.926000
 20
42.381000
  1
TIPUS   NT881
  7
ROMANC
  0
LINE
  8
1
  6
CONTINUOUS
 10
285.890000
 20
33.435000
 11
285.240000
 21
33.435000
  0
LINE
  8
1
  6
CONTINUOUS
 10
285.880000
 20
33.425000
 11
285.231000
 21
33.425000
  0
POLYLINE
  8
1
  6
CONTINUOUS
 66
     1
 70
     0
  0
VERTEX
  8
1
  6
CONTINUOUS
 10
285.890085
 20
33.435000
 42
0.027524
  0
VERTEX
  8
1
  6
CONTINUOUS
 10
285.894715
 20
33.370827
 42
0.028259
  0
VERTEX
  8
1
  6
CONTINUOUS
 10
285.906441
 20
33.307573
 42
0.028717
  0
VERTEX
  8
1
  6
CONTINUOUS
 10
285.924699
 20
33.247976
 42
0.030745
  0
VERTEX
  8
1
  6
CONTINUOUS
 10
285.949870
 20
33.190975
 42
0.031640
  0
VERTEX
  8
1
  6
CONTINUOUS
 10
285.980215
 20
33.140445
 42
0.034880
  0
VERTEX
  8
1
  6
CONTINUOUS
 10
286.016950
 20
33.094395
 42
0.036147
  0
VERTEX
  8
1
  6
CONTINUOUS
 10
286.057072
 20
33.056662
 42
0.040001
  0
VERTEX
  8
1
  6
CONTINUOUS
 10
286.102395
 20
33.025444
 42
0.041290
  0
VERTEX
  8
1
  6
CONTINUOUS
 10
286.149421
 20
33.003361
 42
0.044156
  0
VERTEX
  8
1
  6
CONTINUOUS
 10
286.199471
 20
32.989554
 42
0.044740
  0
VERTEX
  8
1
  6
CONTINUOUS
 10
286.250000
 20
32.985051
 42
0.044740
  0
VERTEX
  8
1
  6
CONTINUOUS
 10
286.300529
 20
32.989554
 42
0.044156
  0
VERTEX
  8
1
  6
CONTINUOUS
 10
286.350579
 20
33.003361
 42
0.041290
  0
VERTEX
  8
1
  6
CONTINUOUS
 10
286.397605
 20
33.025444
 42
0.040001
  0
VERTEX
  8
1
  6
CONTINUOUS
 10
286.442928
 20
33.056662
 42
0.036147
  0
VERTEX
  8
1
  6
CONTINUOUS
 10
286.483050
 20
33.094395
 42
0.034880
  0
VERTEX
  8
1
  6
CONTINUOUS
 10
286.519785
 20
33.140445
 42
0.031640
  0
VERTEX
  8
1
  6
CONTINUOUS
 10
286.550130
 20
33.190975
 42
0.030745
  0
VERTEX
  8
1
  6
CONTINUOUS
 10
286.575301
 20
33.247976
 42
0.028717
  0
VERTEX
  8
1
  6
CONTINUOUS
 10
286.593559
 20
33.307573
 42
0.028259
  0
VERTEX
  8
1
  6
CONTINUOUS
 10
286.605285
 20
33.370827
 42
0.027524
  0
VERTEX
  8
1
  6
CONTINUOUS
 10
286.609915
 20
33.435000
  0
SEQEND
  8
0
  0
POLYLINE
  8
1
  6
CONTINUOUS
 66
     1
 70
     0
  0
VERTEX
  8
1
  6
CONTINUOUS
 10
285.880335
 20
33.425000
 42
0.027345
  0
VERTEX
  8
1
  6
CONTINUOUS
 10
285.886038
 20
33.360466
 42
0.028133
  0
VERTEX
  8
1
  6
CONTINUOUS
 10
285.898833
 20
33.296964
 42
0.028598
  0
VERTEX
  8
1
  6
CONTINUOUS
 10
285.918106
 20
33.237272
 42
0.030606
  0
VERTEX
  8
1
  6
CONTINUOUS
 10
285.944268
 20
33.180283
 42
0.031481
  0
VERTEX
  8
1
  6
CONTINUOUS
 10
285.975544
 20
33.129812
 42
0.034610
  0
VERTEX
  8
1
  6
CONTINUOUS
 10
286.013157
 20
33.083909
 42
0.035821
  0
VERTEX
  8
1
  6
CONTINUOUS
 10
286.054123
 20
33.046292
 42
0.039471
  0
VERTEX
  8
1
  6
CONTINUOUS
 10
286.100214
 20
33.015235
 42
0.040679
  0
VERTEX
  8
1
  6
CONTINUOUS
 10
286.148007
 20
32.993251
 42
0.043351
  0
VERTEX
  8
1
  6
CONTINUOUS
 10
286.198761
 20
32.979529
 42
0.043891
  0
VERTEX
  8
1
  6
CONTINUOUS
 10
286.250000
 20
32.975048
 42
0.043891
  0
VERTEX
  8
1
  6
CONTINUOUS
 10
286.301239
 20
32.979529
 42
0.043351
  0
VERTEX
  8
1
  6
CONTINUOUS
 10
286.351993
 20
32.993251
 42
0.040679
  0
VERTEX
  8
1
  6
CONTINUOUS
 10
286.399786
 20
33.015235
 42
0.039471
  0
VERTEX
  8
1
  6
CONTINUOUS
 10
286.445877
 20
33.046292
 42
0.035821
  0
VERTEX
  8
1
  6
CONTINUOUS
 10
286.486843
 20
33.083909
 42
0.034610
  0
VERTEX
  8
1
  6
CONTINUOUS
 10
286.524456
 20
33.129812
 42
0.031481
  0
VERTEX
  8
1
  6
CONTINUOUS
 10
286.555732
 20
33.180283
 42
0.030606
  0
VERTEX
  8
1
  6
CONTINUOUS
 10
286.581894
 20
33.237272
 42
0.028598
  0
VERTEX
  8
1
  6
CONTINUOUS
 10
286.601167
 20
33.296964
 42
0.028133
  0
VERTEX
  8
1
  6
CONTINUOUS
 10
286.613962
 20
33.360466
 42
0.027345
  0
VERTEX
  8
1
  6
CONTINUOUS
 10
286.619665
 20
33.425000
  0
SEQEND
  8
0
  0
LINE
  8
1
  6
CONTINUOUS
 10
287.260000
 20
33.435000
 11
286.610000
 21
33.435000
  0
LINE
  8
1
  6
CONTINUOUS
 10
287.269000
 20
33.425000
 11
286.620000
 21
33.425000
  0
LINE
  8
1
  6
CONTINUOUS
 10
287.360000
 20
36.995000
 11
287.260000
 21
33.435000
  0
LINE
  8
1
  6
CONTINUOUS
 10
287.370000
 20
36.994000
 11
287.269000
 21
33.425000
  0
LINE
  8
1
  6
CONTINUOUS
 10
285.240000
 20
33.435000
 11
285.140000
 21
36.995000
  0
LINE
  8
1
  6
CONTINUOUS
 10
285.231000
 20
33.425000
 11
285.130000
 21
36.994000
  0
POLYLINE
  8
1
  6
CONTINUOUS
 66
     1
 70
     0
  0
VERTEX
  8
1
  6
CONTINUOUS
 10
287.360000
 20
36.995516
 42
0.060142
  0
VERTEX
  8
1
  6
CONTINUOUS
 10
287.347987
 20
37.090933
 42
0.054216
  0
VERTEX
  8
1
  6
CONTINUOUS
 10
287.314819
 20
37.181385
 42
0.050633
  0
VERTEX
  8
1
  6
CONTINUOUS
 10
287.256953
 20
37.272634
 42
0.040546
  0
VERTEX
  8
1
  6
CONTINUOUS
 10
287.183424
 20
37.352163
 42
0.037446
  0
VERTEX
  8
1
  6
CONTINUOUS
 10
287.084789
 20
37.430025
 42
0.030152
  0
VERTEX
  8
1
  6
CONTINUOUS
 10
286.976452
 20
37.494023
 42
0.028334
  0
VERTEX
  8
1
  6
CONTINUOUS
 10
286.846260
 20
37.551716
 42
0.024259
  0
VERTEX
  8
1
  6
CONTINUOUS
 10
286.710663
 20
37.595479
 42
0.023352
  0
VERTEX
  8
1
  6
CONTINUOUS
 10
286.560321
 20
37.628697
 42
0.021580
  0
VERTEX
  8
1
  6
CONTINUOUS
 10
286.407575
 20
37.648316
 42
0.021307
  0
VERTEX
  8
1
  6
CONTINUOUS
 10
286.249651
 20
37.655010
 42
0.021309
  0
VERTEX
  8
1
  6
CONTINUOUS
 10
286.091729
 20
37.648256
 42
0.021583
  0
VERTEX
  8
1
  6
CONTINUOUS
 10
285.939009
 20
37.628580
 42
0.023359
  0
VERTEX
  8
1
  6
CONTINUOUS
 10
285.788698
 20
37.595305
 42
0.024268
  0
VERTEX
  8
1
  6
CONTINUOUS
 10
285.653151
 20
37.551492
 42
0.028349
  0
VERTEX
  8
1
  6
CONTINUOUS
 10
285.523017
 20
37.493749
 42
0.030170
  0
VERTEX
  8
1
  6
CONTINUOUS
 10
285.414750
 20
37.429712
 42
0.037472
  0
VERTEX
  8
1
  6
CONTINUOUS
 10
285.316196
 20
37.351812
 42
0.040574
  0
VERTEX
  8
1
  6
CONTINUOUS
 10
285.242750
 20
37.272253
 42
0.050663
  0
VERTEX
  8
1
  6
CONTINUOUS
 10
285.184983
 20
37.180984
 42
0.054243
  0
VERTEX
  8
1
  6
CONTINUOUS
 10
285.151910
 20
37.090514
 42
0.060148
  0
VERTEX
  8
1
  6
CONTINUOUS
 10
285.140000
 20
36.995098
  0
SEQEND
  8
0
  0
POLYLINE
  8
1
  6
CONTINUOUS
 66
     1
 70
     0
  0
VERTEX
  8
1
  6
CONTINUOUS
 10
287.370000
 20
36.995524
 42
0.059776
  0
VERTEX
  8
1
  6
CONTINUOUS
 10
287.357888
 20
37.092360
 42
0.053985
  0
VERTEX
  8
1
  6
CONTINUOUS
 10
287.324412
 20
37.184209
 42
0.050476
  0
VERTEX
  8
1
  6
CONTINUOUS
 10
287.266058
 20
37.276795
 42
0.040549
  0
VERTEX
  8
1
  6
CONTINUOUS
 10
287.191833
 20
37.357575
 42
0.037484
  0
VERTEX
  8
1
  6
CONTINUOUS
 10
287.092349
 20
37.436588
 42
0.030252
  0
VERTEX
  8
1
  6
CONTINUOUS
 10
286.982997
 20
37.501584
 42
0.028443
  0
VERTEX
  8
1
  6
CONTINUOUS
 10
286.851660
 20
37.560139
 42
0.024383
  0
VERTEX
  8
1
  6
CONTINUOUS
 10
286.714813
 20
37.604577
 42
0.023478
  0
VERTEX
  8
1
  6
CONTINUOUS
 10
286.563131
 20
37.638295
 42
0.021709
  0
VERTEX
  8
1
  6
CONTINUOUS
 10
286.408995
 20
37.658215
 42
0.021436
  0
VERTEX
  8
1
  6
CONTINUOUS
 10
286.249648
 20
37.665010
 42
0.021438
  0
VERTEX
  8
1
  6
CONTINUOUS
 10
286.090303
 20
37.658154
 42
0.021712
  0
VERTEX
  8
1
  6
CONTINUOUS
 10
285.936193
 20
37.638177
 42
0.023485
  0
VERTEX
  8
1
  6
CONTINUOUS
 10
285.784542
 20
37.604401
 42
0.024392
  0
VERTEX
  8
1
  6
CONTINUOUS
 10
285.647746
 20
37.559912
 42
0.028458
  0
VERTEX
  8
1
  6
CONTINUOUS
 10
285.516467
 20
37.501306
 42
0.030270
  0
VERTEX
  8
1
  6
CONTINUOUS
 10
285.407186
 20
37.436270
 42
0.037509
  0
VERTEX
  8
1
  6
CONTINUOUS
 10
285.307784
 20
37.357218
 42
0.040577
  0
VERTEX
  8
1
  6
CONTINUOUS
 10
285.233643
 20
37.276409
 42
0.050506
  0
VERTEX
  8
1
  6
CONTINUOUS
 10
285.175388
 20
37.183802
 42
0.054012
  0
VERTEX
  8
1
  6
CONTINUOUS
 10
285.142008
 20
37.091934
 42
0.059782
  0
VERTEX
  8
1
  6
CONTINUOUS
 10
285.130000
 20
36.995100
  0
SEQEND
  8
0
  0
LINE
  8
1
  6
CONTINUOUS
 10
285.900000
 20
33.445000
 11
285.250000
 21
33.445000
  0
LINE
  8
1
  6
CONTINUOUS
 10
287.250000
 20
33.445000
 11
286.600000
 21
33.445000
  0
TEXT
  8
1
  6
CONTINUOUS
 40
0.075000
 10
286.113000
 20
32.710000
  1
0.70
  7
ROMANC
  0
LINE
  8
1
  6
CONTINUOUS
 10
286.075000
 20
32.748000
 11
285.900000
 21
32.748000
  0
LINE
  8
1
  6
CONTINUOUS
 10
286.424000
 20
32.748000
 11
286.600000
 21
32.748000
  0
LINE
  8
1
  6
CONTINUOUS
 10
285.862000
 20
32.729000
 11
285.938000
 21
32.767000
  0
LINE
  8
1
  6
CONTINUOUS
 10
286.638000
 20
32.767000
 11
286.562000
 21
32.729000
  0
LINE
  8
1
  6
CONTINUOUS
 10
285.900000
 20
33.407000
 11
285.900000
 21
32.710000
  0
LINE
  8
1
  6
CONTINUOUS
 10
286.600000
 20
33.407000
 11
286.600000
 21
32.710000
  0
LINE
  8
1
  6
CONTINUOUS
 10
285.250000
 20
33.445000
 11
285.150000
 21
36.995000
  0
TEXT
  8
1
  6
CONTINUOUS
 40
0.075000
 10
286.113000
 20
32.298000
  1
2.00
  7
ROMANC
  0
LINE
  8
1
  6
CONTINUOUS
 10
286.075000
 20
32.335000
 11
285.250000
 21
32.335000
  0
LINE
  8
1
  6
CONTINUOUS
 10
286.424000
 20
32.335000
 11
287.250000
 21
32.335000
  0
LINE
  8
1
  6
CONTINUOUS
 10
285.212000
 20
32.316000
 11
285.288000
 21
32.354000
  0
LINE
  8
1
  6
CONTINUOUS
 10
287.288000
 20
32.354000
 11
287.212000
 21
32.316000
  0
LINE
  8
1
  6
CONTINUOUS
 10
285.250000
 20
33.407000
 11
285.250000
 21
32.297000
  0
LINE
  8
1
  6
CONTINUOUS
 10
287.250000
 20
33.407000
 11
287.250000
 21
32.297000
  0
POLYLINE
  8
1
  6
CONTINUOUS
 66
     1
 70
     0
  0
VERTEX
  8
1
  6
CONTINUOUS
 10
285.900000
 20
33.445000
 42
0.027714
  0
VERTEX
  8
1
  6
CONTINUOUS
 10
285.903538
 20
33.381211
 42
0.028387
  0
VERTEX
  8
1
  6
CONTINUOUS
 10
285.914177
 20
33.318222
 42
0.028836
  0
VERTEX
  8
1
  6
CONTINUOUS
 10
285.931399
 20
33.258725
 42
0.030878
  0
VERTEX
  8
1
  6
CONTINUOUS
 10
285.955560
 20
33.201715
 42
0.031793
  0
VERTEX
  8
1
  6
CONTINUOUS
 10
285.984955
 20
33.151122
 42
0.035148
  0
VERTEX
  8
1
  6
CONTINUOUS
 10
286.020796
 20
33.104916
 42
0.036472
  0
VERTEX
  8
1
  6
CONTINUOUS
 10
286.060057
 20
33.067060
 42
0.040546
  0
VERTEX
  8
1
  6
CONTINUOUS
 10
286.104600
 20
33.035668
 42
0.041922
  0
VERTEX
  8
1
  6
CONTINUOUS
 10
286.150846
 20
33.013480
 42
0.045002
  0
VERTEX
  8
1
  6
CONTINUOUS
 10
286.200183
 20
32.999582
 42
0.045635
  0
VERTEX
  8
1
  6
CONTINUOUS
 10
286.249992
 20
32.995053
 42
0.045635
  0
VERTEX
  8
1
  6
CONTINUOUS
 10
286.299802
 20
32.999579
 42
0.045002
  0
VERTEX
  8
1
  6
CONTINUOUS
 10
286.349140
 20
33.013475
 42
0.041923
  0
VERTEX
  8
1
  6
CONTINUOUS
 10
286.395387
 20
33.035661
 42
0.040547
  0
VERTEX
  8
1
  6
CONTINUOUS
 10
286.439931
 20
33.067050
 42
0.036473
  0
VERTEX
  8
1
  6
CONTINUOUS
 10
286.479193
 20
33.104904
 42
0.035149
  0
VERTEX
  8
1
  6
CONTINUOUS
 10
286.515035
 20
33.151108
 42
0.031793
  0
VERTEX
  8
1
  6
CONTINUOUS
 10
286.544432
 20
33.201698
 42
0.030879
  0
VERTEX
  8
1
  6
CONTINUOUS
 10
286.568594
 20
33.258708
 42
0.028836
  0
VERTEX
  8
1
  6
CONTINUOUS
 10
286.585819
 20
33.318204
 42
0.028387
  0
VERTEX
  8
1
  6
CONTINUOUS
 10
286.596460
 20
33.381192
 42
0.027714
  0
VERTEX
  8
1
  6
CONTINUOUS
 10
286.600000
 20
33.444981
  0
SEQEND
  8
0
  0
TEXT
  8
1
  6
CONTINUOUS
 40
0.075000
 10
288.170000
 20
33.084000
  1
0.45
 50
90.000000
  7
ROMANC
  0
LINE
  8
1
  6
CONTINUOUS
 10
288.132000
 20
33.595000
 11
288.132000
 21
33.445000
  0
LINE
  8
1
  6
CONTINUOUS
 10
288.132000
 20
32.845000
 11
288.132000
 21
32.995000
  0
LINE
  8
1
  6
CONTINUOUS
 10
288.151000
 20
33.408000
 11
288.113000
 21
33.482000
  0
LINE
  8
1
  6
CONTINUOUS
 10
288.113000
 20
33.032000
 11
288.151000
 21
32.958000
  0
LINE
  8
1
  6
CONTINUOUS
 10
286.638000
 20
33.445000
 11
288.170000
 21
33.445000
  0
LINE
  8
1
  6
CONTINUOUS
 10
286.288000
 20
32.995000
 11
288.170000
 21
32.995000
  0
LINE
  8
1
  6
CONTINUOUS
 10
287.350000
 20
36.995000
 11
287.250000
 21
33.445000
  0
TEXT
  8
1
  6
CONTINUOUS
 40
0.075000
 10
288.498000
 20
35.083000
  1
3.55
 50
90.000000
  7
ROMANC
  0
LINE
  8
1
  6
CONTINUOUS
 10
288.461000
 20
35.045000
 11
288.461000
 21
33.445000
  0
LINE
  8
1
  6
CONTINUOUS
 10
288.461000
 20
35.394000
 11
288.461000
 21
36.995000
  0
LINE
  8
1
  6
CONTINUOUS
 10
288.480000
 20
33.408000
 11
288.442000
 21
33.482000
  0
LINE
  8
1
  6
CONTINUOUS
 10
288.442000
 20
37.032000
 11
288.480000
 21
36.958000
  0
LINE
  8
1
  6
CONTINUOUS
 10
287.288000
 20
33.445000
 11
288.499000
 21
33.445000
  0
LINE
  8
1
  6
CONTINUOUS
 10
287.388000
 20
36.995000
 11
288.499000
 21
36.995000
  0
POLYLINE
  8
1
  6
CONTINUOUS
 66
     1
 70
     0
  0
VERTEX
  8
1
  6
CONTINUOUS
 10
287.350000
 20
36.995508
 42
0.060519
  0
VERTEX
  8
1
  6
CONTINUOUS
 10
287.338086
 20
37.089506
 42
0.054452
  0
VERTEX
  8
1
  6
CONTINUOUS
 10
287.305226
 20
37.178561
 42
0.050793
  0
VERTEX
  8
1
  6
CONTINUOUS
 10
287.247848
 20
37.268472
 42
0.040541
  0
VERTEX
  8
1
  6
CONTINUOUS
 10
287.175014
 20
37.346752
 42
0.037406
  0
VERTEX
  8
1
  6
CONTINUOUS
 10
287.077230
 20
37.423462
 42
0.030049
  0
VERTEX
  8
1
  6
CONTINUOUS
 10
286.969908
 20
37.486462
 42
0.028222
  0
VERTEX
  8
1
  6
CONTINUOUS
 10
286.840860
 20
37.543292
 42
0.024131
  0
VERTEX
  8
1
  6
CONTINUOUS
 10
286.706513
 20
37.586380
 42
0.023223
  0
VERTEX
  8
1
  6
CONTINUOUS
 10
286.557511
 20
37.619098
 42
0.021449
  0
VERTEX
  8
1
  6
CONTINUOUS
 10
286.406156
 20
37.638417
 42
0.021175
  0
VERTEX
  8
1
  6
CONTINUOUS
 10
286.249654
 20
37.645010
 42
0.021177
  0
VERTEX
  8
1
  6
CONTINUOUS
 10
286.093155
 20
37.638359
 42
0.021452
  0
VERTEX
  8
1
  6
CONTINUOUS
 10
285.941825
 20
37.618984
 42
0.023230
  0
VERTEX
  8
1
  6
CONTINUOUS
 10
285.792854
 20
37.586210
 42
0.024140
  0
VERTEX
  8
1
  6
CONTINUOUS
 10
285.658557
 20
37.543072
 42
0.028237
  0
VERTEX
  8
1
  6
CONTINUOUS
 10
285.529566
 20
37.486193
 42
0.030067
  0
VERTEX
  8
1
  6
CONTINUOUS
 10
285.422313
 20
37.423153
 42
0.037432
  0
VERTEX
  8
1
  6
CONTINUOUS
 10
285.324609
 20
37.346405
 42
0.040570
  0
VERTEX
  8
1
  6
CONTINUOUS
 10
285.251858
 20
37.268097
 42
0.050824
  0
VERTEX
  8
1
  6
CONTINUOUS
 10
285.194578
 20
37.178166
 42
0.054480
  0
VERTEX
  8
1
  6
CONTINUOUS
 10
285.161812
 20
37.089093
 42
0.060525
  0
VERTEX
  8
1
  6
CONTINUOUS
 10
285.150000
 20
36.995097
  0
SEQEND
  8
0
  0
TEXT
  8
1
  6
CONTINUOUS
 40
0.075000
 10
288.848000
 20
35.183000
  1
4.65
 50
90.000000
  7
ROMANC
  0
LINE
  8
1
  6
CONTINUOUS
 10
288.810000
 20
35.145000
 11
288.810000
 21
32.995000
  0
LINE
  8
1
  6
CONTINUOUS
 10
288.810000
 20
35.494000
 11
288.810000
 21
37.645000
  0
LINE
  8
1
  6
CONTINUOUS
 10
288.829000
 20
32.958000
 11
288.791000
 21
33.032000
  0
LINE
  8
1
  6
CONTINUOUS
 10
288.791000
 20
37.682000
 11
288.829000
 21
37.608000
  0
LINE
  8
1
  6
CONTINUOUS
 10
286.326000
 20
32.995000
 11
288.848000
 21
32.995000
  0
LINE
  8
1
  6
CONTINUOUS
 10
286.288000
 20
37.645000
 11
288.848000
 21
37.645000
  0
TEXT
  8
1
  6
CONTINUOUS
 40
0.075000
 10
286.113000
 20
38.550000
  1
2.20
  7
ROMANC
  0
LINE
  8
1
  6
CONTINUOUS
 10
286.075000
 20
38.588000
 11
285.150000
 21
38.588000
  0
LINE
  8
1
  6
CONTINUOUS
 10
286.424000
 20
38.588000
 11
287.350000
 21
38.588000
  0
LINE
  8
1
  6
CONTINUOUS
 10
285.112000
 20
38.569000
 11
285.188000
 21
38.607000
  0
LINE
  8
1
  6
CONTINUOUS
 10
287.388000
 20
38.607000
 11
287.312000
 21
38.569000
  0
LINE
  8
1
  6
CONTINUOUS
 10
285.150000
 20
37.033000
 11
285.150000
 21
38.626000
  0
LINE
  8
1
  6
CONTINUOUS
 10
287.350000
 20
37.034000
 11
287.350000
 21
38.626000
  0
ENDSEC
  0
EOF
