  0
SECTION
  2
HEADER
  9
$ACADVER
  1
AC1009
  9
$INSBASE
 10
0.0
 20
0.0
 30
0.0
  9
$EXTMIN
 10
318.829805
 20
29.85788
 30
-0.001526
  9
$EXTMAX
 10
329.371339
 20
44.72551
 30
0.0
  9
$LIMMIN
 10
0.0
 20
0.0
  9
$LIMMAX
 10
410.0
 20
287.0
  9
$ORTHOMODE
 70
     1
  9
$REGENMODE
 70
     1
  9
$FILLMODE
 70
     1
  9
$QTEXTMODE
 70
     0
  9
$MIRRTEXT
 70
     1
  9
$DRAGMODE
 70
     2
  9
$LTSCALE
 40
25.0
  9
$OSMODE
 70
     0
  9
$ATTMODE
 70
     1
  9
$TEXTSIZE
 40
0.1
  9
$TRACEWID
 40
1.0
  9
$TEXTSTYLE
  7
ROMANC
  9
$CLAYER
  8
0
  9
$CELTYPE
  6
BYLAYER
  9
$CECOLOR
 62
   256
  9
$DIMSCALE
 40
1.5
  9
$DIMASZ
 40
0.1
  9
$DIMEXO
 40
0.01
  9
$DIMDLI
 40
7.0
  9
$DIMRND
 40
0.0
  9
$DIMDLE
 40
0.0
  9
$DIMEXE
 40
0.01
  9
$DIMTP
 40
0.0
  9
$DIMTM
 40
0.0
  9
$DIMTXT
 40
0.05
  9
$DIMCEN
 40
0.0
  9
$DIMTSZ
 40
0.0
  9
$DIMTOL
 70
     0
  9
$DIMLIM
 70
     0
  9
$DIMTIH
 70
     0
  9
$DIMTOH
 70
     0
  9
$DIMSE1
 70
     0
  9
$DIMSE2
 70
     0
  9
$DIMTAD
 70
     1
  9
$DIMZIN
 70
     0
  9
$DIMBLK
  1

  9
$DIMASO
 70
     1
  9
$DIMSHO
 70
     0
  9
$DIMPOST
  1

  9
$DIMAPOST
  1

  9
$DIMALT
 70
     0
  9
$DIMALTD
 70
     2
  9
$DIMALTF
 40
25.4
  9
$DIMLFAC
 40
1.0
  9
$DIMTOFL
 70
     1
  9
$DIMTVP
 40
0.0
  9
$DIMTIX
 70
     1
  9
$DIMSOXD
 70
     0
  9
$DIMSAH
 70
     0
  9
$DIMBLK1
  1

  9
$DIMBLK2
  1

  9
$DIMSTYLE
  2
MERITXELL
  9
$DIMCLRD
 70
     0
  9
$DIMCLRE
 70
     0
  9
$DIMCLRT
 70
     0
  9
$DIMTFAC
 40
70.0
  9
$DIMGAP
 40
0.025
  9
$LUNITS
 70
     2
  9
$LUPREC
 70
     2
  9
$SKETCHINC
 40
1.0
  9
$FILLETRAD
 40
0.0
  9
$AUNITS
 70
     0
  9
$AUPREC
 70
     0
  9
$MENU
  1
acad
  9
$ELEVATION
 40
0.0
  9
$PELEVATION
 40
0.0
  9
$THICKNESS
 40
0.0
  9
$LIMCHECK
 70
     0
  9
$BLIPMODE
 70
     0
  9
$CHAMFERA
 40
0.0
  9
$CHAMFERB
 40
0.0
  9
$SKPOLY
 70
     0
  9
$TDCREATE
 40
2450927.46195
  9
$TDUPDATE
 40
2451122.518155
  9
$TDINDWG
 40
0.061499
  9
$TDUSRTIMER
 40
0.061499
  9
$USRTIMER
 70
     1
  9
$ANGBASE
 50
0.0
  9
$ANGDIR
 70
     0
  9
$PDMODE
 70
     0
  9
$PDSIZE
 40
0.0
  9
$PLINEWID
 40
0.0
  9
$COORDS
 70
     2
  9
$SPLFRAME
 70
     0
  9
$SPLINETYPE
 70
     6
  9
$SPLINESEGS
 70
     8
  9
$ATTDIA
 70
     0
  9
$ATTREQ
 70
     1
  9
$HANDLING
 70
     1
  9
$HANDSEED
  5
2E2
  9
$SURFTAB1
 70
     6
  9
$SURFTAB2
 70
     6
  9
$SURFTYPE
 70
     6
  9
$SURFU
 70
     6
  9
$SURFV
 70
     6
  9
$UCSNAME
  2

  9
$UCSORG
 10
0.0
 20
0.0
 30
0.0
  9
$UCSXDIR
 10
1.0
 20
0.0
 30
0.0
  9
$UCSYDIR
 10
0.0
 20
1.0
 30
0.0
  9
$PUCSNAME
  2

  9
$PUCSORG
 10
0.0
 20
0.0
 30
0.0
  9
$PUCSXDIR
 10
1.0
 20
0.0
 30
0.0
  9
$PUCSYDIR
 10
0.0
 20
1.0
 30
0.0
  9
$USERI1
 70
     0
  9
$USERI2
 70
     0
  9
$USERI3
 70
     0
  9
$USERI4
 70
     0
  9
$USERI5
 70
     0
  9
$USERR1
 40
0.0
  9
$USERR2
 40
0.0
  9
$USERR3
 40
0.0
  9
$USERR4
 40
0.0
  9
$USERR5
 40
0.0
  9
$WORLDVIEW
 70
     1
  9
$SHADEDGE
 70
     3
  9
$SHADEDIF
 70
    70
  9
$TILEMODE
 70
     1
  9
$MAXACTVP
 70
    16
  9
$PLIMCHECK
 70
     0
  9
$PEXTMIN
 10
1.000000E+020
 20
1.000000E+020
 30
1.000000E+020
  9
$PEXTMAX
 10
-1.000000E+020
 20
-1.000000E+020
 30
-1.000000E+020
  9
$PLIMMIN
 10
0.0
 20
0.0
  9
$PLIMMAX
 10
12.0
 20
9.0
  9
$UNITMODE
 70
     0
  9
$VISRETAIN
 70
     0
  9
$PLINEGEN
 70
     0
  9
$PSLTSCALE
 70
     0
  0
ENDSEC
  0
SECTION
  2
TABLES
  0
TABLE
  2
VPORT
 70
     6
  0
VPORT
  2
*ACTIVE
 70
     0
 10
0.0
 20
0.0
 11
1.0
 21
1.0
 12
324.100572
 22
37.291695
 13
0.0
 23
0.0
 14
1.0
 24
1.0
 15
10.0
 25
10.0
 16
0.0
 26
0.0
 36
1.0
 17
0.0
 27
0.0
 37
0.0
 40
15.002178
 41
1.732628
 42
50.0
 43
0.0
 44
0.0
 50
0.0
 51
0.0
 71
     0
 72
   100
 73
     1
 74
     0
 75
     0
 76
     0
 77
     0
 78
     1
  0
ENDTAB
  0
TABLE
  2
LTYPE
 70
     1
  0
LTYPE
  2
CONTINUOUS
 70
     0
  3
Solid line
 72
    65
 73
     0
 40
0.0
  0
ENDTAB
  0
TABLE
  2
LAYER
 70
     2
  0
LAYER
  2
0
 70
     0
 62
     7
  6
CONTINUOUS
  0
LAYER
  2
DEFPOINTS
 70
     0
 62
     7
  6
CONTINUOUS
  0
ENDTAB
  0
TABLE
  2
STYLE
 70
     2
  0
STYLE
  2
STANDARD
 70
     0
 40
0.0
 41
1.0
 50
0.0
 71
     0
 42
0.1
  3
txt
  4

  0
STYLE
  2
ROMANC
 70
     0
 40
0.0
 41
1.0
 50
0.0
 71
     0
 42
0.1
  3
romanc
  4

  0
ENDTAB
  0
TABLE
  2
VIEW
 70
     0
  0
ENDTAB
  0
TABLE
  2
UCS
 70
     0
  0
ENDTAB
  0
TABLE
  2
APPID
 70
     1
  0
APPID
  2
ACAD
 70
     0
  0
ENDTAB
  0
TABLE
  2
DIMSTYLE
 70
     1
  0
DIMSTYLE
  2
MERITXELL
 70
     0
  3

  4

  5

  6

  7

 40
1.5
 41
0.1
 42
0.01
 43
7.0
 44
0.01
 45
0.0
 46
0.0
 47
0.0
 48
0.0
140
0.05
141
0.1
142
0.0
143
25.4
144
1.0
145
0.0
146
70.0
147
0.09
 71
     0
 72
     0
 73
     0
 74
     0
 75
     0
 76
     0
 77
     1
 78
     0
170
     0
171
     2
172
     1
173
     0
174
     1
175
     0
176
     0
177
     0
178
     0
  0
ENDTAB
  0
ENDSEC
  0
SECTION
  2
BLOCKS
  0
BLOCK
  8
0
  2
$MODEL_SPACE
 70
     0
 10
0.0
 20
0.0
 30
0.0
  3
$MODEL_SPACE
  1

  0
ENDBLK
  5
24
  8
0
  0
BLOCK
 67
     1
  8
0
  2
$PAPER_SPACE
 70
     0
 10
0.0
 20
0.0
 30
0.0
  3
$PAPER_SPACE
  1

  0
ENDBLK
  5
22
 67
     1
  8
0
  0
BLOCK
  8
0
  2
*D0
 70
     1
 10
0.0
 20
0.0
 30
0.0
  3
*D0
  1

  0
LINE
  5
24E
  8
0
  6
BYBLOCK
 62
     0
 10
322.653867
 20
34.065572
 30
0.0
 11
322.653867
 21
33.649324
 31
0.0
  0
LINE
  5
24F
  8
0
  6
BYBLOCK
 62
     0
 10
326.653867
 20
34.065572
 30
0.0
 11
326.653867
 21
33.649324
 31
0.0
  0
LINE
  5
250
  8
0
  6
BYBLOCK
 62
     0
 10
322.803867
 20
33.664324
 30
0.0
 11
326.503867
 21
33.664324
 31
0.0
  0
SOLID
  5
251
  8
0
  6
BYBLOCK
 62
     0
 10
322.803867
 20
33.689324
 30
0.0
 11
322.803867
 21
33.639324
 31
0.0
 12
322.653867
 22
33.664324
 32
0.0
 13
322.653867
 23
33.664324
 33
0.0
  0
SOLID
  5
252
  8
0
  6
BYBLOCK
 62
     0
 10
326.503867
 20
33.689324
 30
0.0
 11
326.503867
 21
33.639324
 31
0.0
 12
326.653867
 22
33.664324
 32
0.0
 13
326.653867
 23
33.664324
 33
0.0
  0
TEXT
  8
0
  40
0.075
  5
2D7
  62
0
  72
0
  71
0
 10
324.504
 20
33.6066
 30
0.000000
  1
4.00
  7
ROMANC
  0
POINT
  5
254
  8
DEFPOINTS
  6
BYBLOCK
 62
     0
 10
322.653867
 20
34.080572
 30
0.0
  0
POINT
  5
255
  8
DEFPOINTS
  6
BYBLOCK
 62
     0
 10
326.653867
 20
34.080572
 30
0.0
  0
POINT
  5
256
  8
DEFPOINTS
  6
BYBLOCK
 62
     0
 10
326.653867
 20
33.664324
 30
0.0
  0
ENDBLK
  5
257
  8
0
  0
BLOCK
  8
0
  2
*D1
 70
     1
 10
0.0
 20
0.0
 30
0.0
  3
*D1
  1

  0
LINE
  5
25B
  8
0
  6
BYBLOCK
 62
     0
 10
322.803867
 20
35.730572
 30
0.0
 11
326.503867
 21
35.730572
 31
0.0
  0
SOLID
  5
25C
  8
0
  6
BYBLOCK
 62
     0
 10
322.803867
 20
35.755572
 30
0.0
 11
322.803867
 21
35.705572
 31
0.0
 12
322.653867
 22
35.730572
 32
0.0
 13
322.653867
 23
35.730572
 33
0.0
  0
SOLID
  5
25D
  8
0
  6
BYBLOCK
 62
     0
 10
326.503867
 20
35.755572
 30
0.0
 11
326.503867
 21
35.705572
 31
0.0
 12
326.653867
 22
35.730572
 32
0.0
 13
326.653867
 23
35.730572
 33
0.0
  0
TEXT
  8
0
  40
0.075
  5
2D8
  62
0
  72
0
  71
0
 10
324.504
 20
35.6728
 30
0.000000
  1
4.00
  7
ROMANC
  0
POINT
  5
25F
  8
DEFPOINTS
  6
BYBLOCK
 62
     0
 10
322.653867
 20
35.730572
 30
0.0
  0
POINT
  5
260
  8
DEFPOINTS
  6
BYBLOCK
 62
     0
 10
326.653867
 20
35.730572
 30
0.0
  0
POINT
  5
261
  8
DEFPOINTS
  6
BYBLOCK
 62
     0
 10
326.653867
 20
35.730572
 30
0.0
  0
ENDBLK
  5
262
  8
0
  0
BLOCK
  8
0
  2
*D2
 70
     1
 10
0.0
 20
0.0
 30
0.0
  3
*D2
  1

  0
LINE
  5
266
  8
0
  6
BYBLOCK
 62
     0
 10
326.668867
 20
35.730572
 30
0.0
 11
327.101309
 21
35.730572
 31
0.0
  0
LINE
  5
267
  8
0
  6
BYBLOCK
 62
     0
 10
326.668867
 20
34.080572
 30
0.0
 11
327.101309
 21
34.080572
 31
0.0
  0
LINE
  5
268
  8
0
  6
BYBLOCK
 62
     0
 10
327.086309
 20
35.580572
 30
0.0
 11
327.086309
 21
34.230572
 31
0.0
  0
SOLID
  5
269
  8
0
  6
BYBLOCK
 62
     0
 10
327.061309
 20
35.580572
 30
0.0
 11
327.111309
 21
35.580572
 31
0.0
 12
327.086309
 22
35.730572
 32
0.0
 13
327.086309
 23
35.730572
 33
0.0
  0
SOLID
  5
26A
  8
0
  6
BYBLOCK
 62
     0
 10
327.061309
 20
34.230572
 30
0.0
 11
327.111309
 21
34.230572
 31
0.0
 12
327.086309
 22
34.080572
 32
0.0
 13
327.086309
 23
34.080572
 33
0.0
  0
TEXT
  8
0
  40
0.075
  5
2D9
  62
0
  72
0
  71
0
 10
326.861
 20
34.7728
 30
0.000000
  1
1.65
  7
ROMANC
  0
POINT
  5
26C
  8
DEFPOINTS
  6
BYBLOCK
 62
     0
 10
326.653867
 20
35.730572
 30
0.0
  0
POINT
  5
26D
  8
DEFPOINTS
  6
BYBLOCK
 62
     0
 10
326.653867
 20
34.080572
 30
0.0
  0
POINT
  5
26E
  8
DEFPOINTS
  6
BYBLOCK
 62
     0
 10
327.086309
 20
34.080572
 30
0.0
  0
ENDBLK
  5
26F
  8
0
  0
BLOCK
  8
0
  2
*D3
 70
     1
 10
0.0
 20
0.0
 30
0.0
  3
*D3
  1

  0
LINE
  5
273
  8
0
  6
BYBLOCK
 62
     0
 10
324.653867
 20
36.515572
 30
0.0
 11
324.653867
 21
35.565572
 31
0.0
  0
LINE
  5
274
  8
0
  6
BYBLOCK
 62
     0
 10
326.653867
 20
35.715572
 30
0.0
 11
326.653867
 21
35.565572
 31
0.0
  0
LINE
  5
275
  8
0
  6
BYBLOCK
 62
     0
 10
324.803867
 20
35.580572
 30
0.0
 11
326.503867
 21
35.580572
 31
0.0
  0
SOLID
  5
276
  8
0
  6
BYBLOCK
 62
     0
 10
324.803867
 20
35.605572
 30
0.0
 11
324.803867
 21
35.555572
 31
0.0
 12
324.653867
 22
35.580572
 32
0.0
 13
324.653867
 23
35.580572
 33
0.0
  0
SOLID
  5
277
  8
0
  6
BYBLOCK
 62
     0
 10
326.503867
 20
35.605572
 30
0.0
 11
326.503867
 21
35.555572
 31
0.0
 12
326.653867
 22
35.580572
 32
0.0
 13
326.653867
 23
35.580572
 33
0.0
  0
TEXT
  8
0
  40
0.075
  5
2DA
  62
0
  72
0
  71
0
 10
325.504
 20
35.5228
 30
0.000000
  1
2.00
  7
ROMANC
  0
POINT
  5
279
  8
DEFPOINTS
  6
BYBLOCK
 62
     0
 10
324.653867
 20
36.530572
 30
0.0
  0
POINT
  5
27A
  8
DEFPOINTS
  6
BYBLOCK
 62
     0
 10
326.653867
 20
35.730572
 30
0.0
  0
POINT
  5
27B
  8
DEFPOINTS
  6
BYBLOCK
 62
     0
 10
326.653867
 20
35.580572
 30
0.0
  0
ENDBLK
  5
27C
  8
0
  0
BLOCK
  8
0
  2
*D4
 70
     1
 10
0.0
 20
0.0
 30
0.0
  3
*D4
  1

  0
LINE
  5
280
  8
0
  6
BYBLOCK
 62
     0
 10
324.668867
 20
36.530572
 30
0.0
 11
327.101309
 21
36.530572
 31
0.0
  0
LINE
  5
281
  8
0
  6
BYBLOCK
 62
     0
 10
326.668867
 20
35.730572
 30
0.0
 11
327.101309
 21
35.730572
 31
0.0
  0
LINE
  5
282
  8
0
  6
BYBLOCK
 62
     0
 10
327.086309
 20
36.380572
 30
0.0
 11
327.086309
 21
35.880572
 31
0.0
  0
SOLID
  5
283
  8
0
  6
BYBLOCK
 62
     0
 10
327.061309
 20
36.380572
 30
0.0
 11
327.111309
 21
36.380572
 31
0.0
 12
327.086309
 22
36.530572
 32
0.0
 13
327.086309
 23
36.530572
 33
0.0
  0
SOLID
  5
284
  8
0
  6
BYBLOCK
 62
     0
 10
327.061309
 20
35.880572
 30
0.0
 11
327.111309
 21
35.880572
 31
0.0
 12
327.086309
 22
35.730572
 32
0.0
 13
327.086309
 23
35.730572
 33
0.0
  0
TEXT
  8
0
  40
0.075
  5
2DB
  62
0
  72
0
  71
0
 10
326.861
 20
35.9978
 30
0.000000
  1
0.80
  7
ROMANC
  0
POINT
  5
286
  8
DEFPOINTS
  6
BYBLOCK
 62
     0
 10
324.653867
 20
36.530572
 30
0.0
  0
POINT
  5
287
  8
DEFPOINTS
  6
BYBLOCK
 62
     0
 10
326.653867
 20
35.730572
 30
0.0
  0
POINT
  5
288
  8
DEFPOINTS
  6
BYBLOCK
 62
     0
 10
327.086309
 20
35.730572
 30
0.0
  0
ENDBLK
  5
289
  8
0
  0
BLOCK
  8
0
  2
*D5
 70
     1
 10
0.0
 20
0.0
 30
0.0
  3
*D5
  1

  0
LINE
  5
28D
  8
0
  6
BYBLOCK
 62
     0
 10
324.668867
 20
36.530572
 30
0.0
 11
327.478948
 21
36.530572
 31
0.0
  0
LINE
  5
28E
  8
0
  6
BYBLOCK
 62
     0
 10
326.668867
 20
34.080572
 30
0.0
 11
327.478948
 21
34.080572
 31
0.0
  0
LINE
  5
28F
  8
0
  6
BYBLOCK
 62
     0
 10
327.463948
 20
36.380572
 30
0.0
 11
327.463948
 21
34.230572
 31
0.0
  0
SOLID
  5
290
  8
0
  6
BYBLOCK
 62
     0
 10
327.438948
 20
36.380572
 30
0.0
 11
327.488948
 21
36.380572
 31
0.0
 12
327.463948
 22
36.530572
 32
0.0
 13
327.463948
 23
36.530572
 33
0.0
  0
SOLID
  5
291
  8
0
  6
BYBLOCK
 62
     0
 10
327.438948
 20
34.230572
 30
0.0
 11
327.488948
 21
34.230572
 31
0.0
 12
327.463948
 22
34.080572
 32
0.0
 13
327.463948
 23
34.080572
 33
0.0
  0
TEXT
  8
0
  40
0.075
  5
2DC
  62
0
  72
0
  71
0
 10
327.239
 20
35.1728
 30
0.000000
  1
2.45
  7
ROMANC
  0
POINT
  5
293
  8
DEFPOINTS
  6
BYBLOCK
 62
     0
 10
324.653867
 20
36.530572
 30
0.0
  0
POINT
  5
294
  8
DEFPOINTS
  6
BYBLOCK
 62
     0
 10
326.653867
 20
34.080572
 30
0.0
  0
POINT
  5
295
  8
DEFPOINTS
  6
BYBLOCK
 62
     0
 10
327.463948
 20
34.080572
 30
0.0
  0
ENDBLK
  5
296
  8
0
  0
ENDSEC
  0
SECTION
  2
ENTITIES
  0
LINE
  5
27
  8
0
 10
329.348696
 20
29.863623
 30
0.0
 11
329.348696
 21
44.713623
 31
0.0
  0
LINE
  5
28
  8
0
 10
318.848696
 20
44.713623
 30
0.0
 11
318.848696
 21
29.863623
 31
0.0
  0
LINE
  5
29
  8
0
 10
318.848696
 20
29.863623
 30
0.0
 11
329.348696
 21
29.863623
 31
0.0
  0
TEXT
  5
2A
  8
0
 10
321.773149
 20
42.309482
 30
0.0
 40
0.3
  1
TIPUS   NT880
  7
ROMANC
  0
TEXT
  5
2D
  8
0
 10
321.735227
 20
40.527599
 30
0.0
 40
0.3
  1
P = 117,1 dm
  7
ROMANC
  0
TEXT
  5
2E
  8
0
 10
321.786243
 20
41.225178
 30
0.0
 40
0.3
  1
S = 880 dm
  7
ROMANC
  0
TEXT
  5
2F
  8
0
 10
321.773149
 20
41.823768
 30
0.0
 40
0.3
  1
ESCALA  1:50
  7
ROMANC
  0
TEXT
  5
30
  8
0
 10
324.991178
 20
41.531094
 30
0.0
 40
0.1
  1
2
  7
ROMANC
  0
LINE
  5
31
  8
0
 10
329.348696
 20
44.713623
 30
0.0
 11
318.848696
 21
44.713623
 31
0.0
  0
ARC
  5
29F
  8
0
 10
323.816107
 20
33.630572
 30
0.0
 40
2.89
 50
46.482088
 51
133.517912
  0
LINE
  5
2A0
  8
0
 10
321.826107
 20
35.726282
 30
0.0
 11
321.826107
 21
34.090572
 31
0.0
  0
LINE
  5
2A1
  8
0
 10
321.826107
 20
34.090572
 30
0.0
 11
325.806107
 21
34.090572
 31
0.0
  0
LINE
  5
2A2
  8
0
 10
325.806107
 20
34.090572
 30
0.0
 11
325.806107
 21
35.726282
 31
0.0
  0
ARC
  5
2A3
  8
0
 10
323.816107
 20
33.630572
 30
0.0
 40
2.91
 50
46.312739
 51
133.687261
  0
LINE
  5
2A4
  8
0
 10
321.806107
 20
35.734854
 30
0.0
 11
321.806107
 21
34.070572
 31
0.0
  0
LINE
  5
2A5
  8
0
 10
321.806107
 20
34.070572
 30
0.0
 11
325.826107
 21
34.070572
 31
0.0
  0
LINE
  5
2A6
  8
0
 10
325.826107
 20
34.070572
 30
0.0
 11
325.826107
 21
35.734854
 31
0.0
  0
ARC
  5
2A7
  8
0
 10
323.816107
 20
33.630572
 30
0.0
 40
2.9
 50
46.397181
 51
133.602819
  0
LINE
  5
2A8
  8
0
 10
321.816107
 20
35.730572
 30
0.0
 11
321.816107
 21
34.080572
 31
0.0
  0
LINE
  5
2A9
  8
0
 10
321.816107
 20
34.080572
 30
0.0
 11
325.816107
 21
34.080572
 31
0.0
  0
LINE
  5
2AA
  8
0
 10
325.816107
 20
34.080572
 30
0.0
 11
325.816107
 21
35.730572
 31
0.0
  0
LINE
  5
2AB
  8
0
  6
BYBLOCK
 62
     0
 10
323.831107
 20
36.530572
 30
0.0
 11
326.641188
 21
36.530572
 31
0.0
  0
LINE
  5
2AC
  8
0
  6
BYBLOCK
 62
     0
 10
325.831107
 20
34.080572
 30
0.0
 11
326.641188
 21
34.080572
 31
0.0
  0
LINE
  5
2AD
  8
0
  6
BYBLOCK
 62
     0
 10
326.626188
 20
36.380572
 30
0.0
 11
326.626188
 21
34.230572
 31
0.0
  0
SOLID
  5
2AE
  8
0
  6
BYBLOCK
 62
     0
 10
326.601188
 20
36.380572
 30
0.0
 11
326.651188
 21
36.380572
 31
0.0
 12
326.626188
 22
36.530572
 32
0.0
 13
326.626188
 23
36.530572
 33
0.0
  0
SOLID
  5
2AF
  8
0
  6
BYBLOCK
 62
     0
 10
326.601188
 20
34.230572
 30
0.0
 11
326.651188
 21
34.230572
 31
0.0
 12
326.626188
 22
34.080572
 32
0.0
 13
326.626188
 23
34.080572
 33
0.0
  0
TEXT
  8
0
  40
0.075
  5
2DD
  62
0
  72
0
  71
0
 10
326.401
 20
35.1728
 30
0.000000
  1
2.45
  7
ROMANC
  0
POINT
  5
2B1
  8
DEFPOINTS
  6
BYBLOCK
 62
     0
 10
323.816107
 20
36.530572
 30
0.0
  0
POINT
  5
2B2
  8
DEFPOINTS
  6
BYBLOCK
 62
     0
 10
325.816107
 20
34.080572
 30
0.0
  0
POINT
  5
2B3
  8
DEFPOINTS
  6
BYBLOCK
 62
     0
 10
326.626188
 20
34.080572
 30
0.0
  0
LINE
  5
2B4
  8
0
  6
BYBLOCK
 62
     0
 10
323.831107
 20
36.530572
 30
0.0
 11
326.263549
 21
36.530572
 31
0.0
  0
LINE
  5
2B5
  8
0
  6
BYBLOCK
 62
     0
 10
325.831107
 20
35.730572
 30
0.0
 11
326.263549
 21
35.730572
 31
0.0
  0
LINE
  5
2B6
  8
0
  6
BYBLOCK
 62
     0
 10
326.248549
 20
36.380572
 30
0.0
 11
326.248549
 21
35.880572
 31
0.0
  0
SOLID
  5
2B7
  8
0
  6
BYBLOCK
 62
     0
 10
326.223549
 20
36.380572
 30
0.0
 11
326.273549
 21
36.380572
 31
0.0
 12
326.248549
 22
36.530572
 32
0.0
 13
326.248549
 23
36.530572
 33
0.0
  0
SOLID
  5
2B8
  8
0
  6
BYBLOCK
 62
     0
 10
326.223549
 20
35.880572
 30
0.0
 11
326.273549
 21
35.880572
 31
0.0
 12
326.248549
 22
35.730572
 32
0.0
 13
326.248549
 23
35.730572
 33
0.0
  0
TEXT
  8
0
  40
0.075
  5
2DE
  62
0
  72
0
  71
0
 10
326.024
 20
35.9978
 30
0.000000
  1
0.80
  7
ROMANC
  0
POINT
  5
2BA
  8
DEFPOINTS
  6
BYBLOCK
 62
     0
 10
323.816107
 20
36.530572
 30
0.0
  0
POINT
  5
2BB
  8
DEFPOINTS
  6
BYBLOCK
 62
     0
 10
325.816107
 20
35.730572
 30
0.0
  0
POINT
  5
2BC
  8
DEFPOINTS
  6
BYBLOCK
 62
     0
 10
326.248549
 20
35.730572
 30
0.0
  0
LINE
  5
2BD
  8
0
  6
BYBLOCK
 62
     0
 10
325.831107
 20
35.730572
 30
0.0
 11
326.263549
 21
35.730572
 31
0.0
  0
LINE
  5
2BE
  8
0
  6
BYBLOCK
 62
     0
 10
325.831107
 20
34.080572
 30
0.0
 11
326.263549
 21
34.080572
 31
0.0
  0
LINE
  5
2BF
  8
0
  6
BYBLOCK
 62
     0
 10
326.248549
 20
35.580572
 30
0.0
 11
326.248549
 21
34.230572
 31
0.0
  0
SOLID
  5
2C0
  8
0
  6
BYBLOCK
 62
     0
 10
326.223549
 20
35.580572
 30
0.0
 11
326.273549
 21
35.580572
 31
0.0
 12
326.248549
 22
35.730572
 32
0.0
 13
326.248549
 23
35.730572
 33
0.0
  0
SOLID
  5
2C1
  8
0
  6
BYBLOCK
 62
     0
 10
326.223549
 20
34.230572
 30
0.0
 11
326.273549
 21
34.230572
 31
0.0
 12
326.248549
 22
34.080572
 32
0.0
 13
326.248549
 23
34.080572
 33
0.0
  0
TEXT
  8
0
  40
0.075
  5
2DF
  62
0
  72
0
  71
0
 10
326.024
 20
34.7728
 30
0.000000
  1
1.65
  7
ROMANC
  0
POINT
  5
2C3
  8
DEFPOINTS
  6
BYBLOCK
 62
     0
 10
325.816107
 20
35.730572
 30
0.0
  0
POINT
  5
2C4
  8
DEFPOINTS
  6
BYBLOCK
 62
     0
 10
325.816107
 20
34.080572
 30
0.0
  0
POINT
  5
2C5
  8
DEFPOINTS
  6
BYBLOCK
 62
     0
 10
326.248549
 20
34.080572
 30
0.0
  0
LINE
  5
2C6
  8
0
  6
BYBLOCK
 62
     0
 10
321.966107
 20
35.730572
 30
0.0
 11
325.666107
 21
35.730572
 31
0.0
  0
SOLID
  5
2C7
  8
0
  6
BYBLOCK
 62
     0
 10
321.966107
 20
35.755572
 30
0.0
 11
321.966107
 21
35.705572
 31
0.0
 12
321.816107
 22
35.730572
 32
0.0
 13
321.816107
 23
35.730572
 33
0.0
  0
SOLID
  5
2C8
  8
0
  6
BYBLOCK
 62
     0
 10
325.666107
 20
35.755572
 30
0.0
 11
325.666107
 21
35.705572
 31
0.0
 12
325.816107
 22
35.730572
 32
0.0
 13
325.816107
 23
35.730572
 33
0.0
  0
TEXT
  8
0
  40
0.075
  5
2E0
  62
0
  72
0
  71
0
 10
323.666
 20
35.6728
 30
0.000000
  1
4.00
  7
ROMANC
  0
POINT
  5
2CA
  8
DEFPOINTS
  6
BYBLOCK
 62
     0
 10
321.816107
 20
35.730572
 30
0.0
  0
POINT
  5
2CB
  8
DEFPOINTS
  6
BYBLOCK
 62
     0
 10
325.816107
 20
35.730572
 30
0.0
  0
POINT
  5
2CC
  8
DEFPOINTS
  6
BYBLOCK
 62
     0
 10
325.816107
 20
35.730572
 30
0.0
  0
LINE
  5
2CD
  8
0
  6
BYBLOCK
 62
     0
 10
321.816107
 20
34.065572
 30
0.0
 11
321.816107
 21
33.649324
 31
0.0
  0
LINE
  5
2CE
  8
0
  6
BYBLOCK
 62
     0
 10
325.816107
 20
34.065572
 30
0.0
 11
325.816107
 21
33.649324
 31
0.0
  0
LINE
  5
2CF
  8
0
  6
BYBLOCK
 62
     0
 10
321.966107
 20
33.664324
 30
0.0
 11
325.666107
 21
33.664324
 31
0.0
  0
SOLID
  5
2D0
  8
0
  6
BYBLOCK
 62
     0
 10
321.966107
 20
33.689324
 30
0.0
 11
321.966107
 21
33.639324
 31
0.0
 12
321.816107
 22
33.664324
 32
0.0
 13
321.816107
 23
33.664324
 33
0.0
  0
SOLID
  5
2D1
  8
0
  6
BYBLOCK
 62
     0
 10
325.666107
 20
33.689324
 30
0.0
 11
325.666107
 21
33.639324
 31
0.0
 12
325.816107
 22
33.664324
 32
0.0
 13
325.816107
 23
33.664324
 33
0.0
  0
TEXT
  8
0
  40
0.075
  5
2E1
  62
0
  72
0
  71
0
 10
323.666
 20
33.6066
 30
0.000000
  1
4.00
  7
ROMANC
  0
POINT
  5
2D3
  8
DEFPOINTS
  6
BYBLOCK
 62
     0
 10
321.816107
 20
34.080572
 30
0.0
  0
POINT
  5
2D4
  8
DEFPOINTS
  6
BYBLOCK
 62
     0
 10
325.816107
 20
34.080572
 30
0.0
  0
POINT
  5
2D5
  8
DEFPOINTS
  6
BYBLOCK
 62
     0
 10
325.816107
 20
33.664324
 30
0.0
  0
ENDSEC
  0
EOF
