  0
SECTION
  2
HEADER
  9
$ACADVER
  1
AC1012
  9
$DWGCODEPAGE
  3
ANSI_1252
  9
$INSBASE
 10
0.0
 20
0.0
 30
0.0
  9
$EXTMIN
 10
-0.5253204101234666
 20
-0.7429531514603341
 30
-0.0015258207003583
  9
$EXTMAX
 10
9.975320459017908
 20
14.10795322061103
 30
0.0000000349246037
  9
$LIMMIN
 10
-0.525
 20
-0.7425000000000001
  9
$LIMMAX
 10
0.525
 20
0.7425000000000001
  9
$ORTHOMODE
 70
     0
  9
$REGENMODE
 70
     1
  9
$FILLMODE
 70
     1
  9
$QTEXTMODE
 70
     0
  9
$MIRRTEXT
 70
     1
  9
$DRAGMODE
 70
     2
  9
$LTSCALE
 40
1.0
  9
$OSMODE
 70
    37
  9
$ATTMODE
 70
     1
  9
$TEXTSIZE
 40
0.2
  9
$TRACEWID
 40
0.05
  9
$TEXTSTYLE
  7
STANDARD
  9
$CLAYER
  8
0
  9
$CELTYPE
  6
BYLAYER
  9
$CECOLOR
 62
   256
  9
$CELTSCALE
 40
1.0
  9
$DELOBJ
 70
     1
  9
$DISPSILH
 70
     0
  9
$DIMSCALE
 40
1.0
  9
$DIMASZ
 40
0.18
  9
$DIMEXO
 40
0.0625
  9
$DIMDLI
 40
0.38
  9
$DIMRND
 40
0.0
  9
$DIMDLE
 40
0.0
  9
$DIMEXE
 40
0.18
  9
$DIMTP
 40
0.0
  9
$DIMTM
 40
0.0
  9
$DIMTXT
 40
0.18
  9
$DIMCEN
 40
0.09
  9
$DIMTSZ
 40
0.0
  9
$DIMTOL
 70
     0
  9
$DIMLIM
 70
     0
  9
$DIMTIH
 70
     1
  9
$DIMTOH
 70
     1
  9
$DIMSE1
 70
     0
  9
$DIMSE2
 70
     0
  9
$DIMTAD
 70
     0
  9
$DIMZIN
 70
     0
  9
$DIMBLK
  1

  9
$DIMASO
 70
     1
  9
$DIMSHO
 70
     1
  9
$DIMPOST
  1

  9
$DIMAPOST
  1

  9
$DIMALT
 70
     0
  9
$DIMALTD
 70
     2
  9
$DIMALTF
 40
25.4
  9
$DIMLFAC
 40
1.0
  9
$DIMTOFL
 70
     0
  9
$DIMTVP
 40
0.0
  9
$DIMTIX
 70
     0
  9
$DIMSOXD
 70
     0
  9
$DIMSAH
 70
     0
  9
$DIMBLK1
  1

  9
$DIMBLK2
  1

  9
$DIMSTYLE
  2
STANDARD
  9
$DIMCLRD
 70
     0
  9
$DIMCLRE
 70
     0
  9
$DIMCLRT
 70
     0
  9
$DIMTFAC
 40
1.0
  9
$DIMGAP
 40
0.09
  9
$DIMJUST
 70
     0
  9
$DIMSD1
 70
     0
  9
$DIMSD2
 70
     0
  9
$DIMTOLJ
 70
     1
  9
$DIMTZIN
 70
     0
  9
$DIMALTZ
 70
     0
  9
$DIMALTTZ
 70
     0
  9
$DIMFIT
 70
     5
  9
$DIMUPT
 70
     0
  9
$DIMUNIT
 70
     4
  9
$DIMDEC
 70
     4
  9
$DIMTDEC
 70
     4
  9
$DIMALTU
 70
     4
  9
$DIMALTTD
 70
     2
  9
$DIMTXSTY
  7
STANDARD
  9
$DIMAUNIT
 70
     0
  9
$LUNITS
 70
     2
  9
$LUPREC
 70
     4
  9
$SKETCHINC
 40
0.1
  9
$FILLETRAD
 40
0.0
  9
$AUNITS
 70
     0
  9
$AUPREC
 70
     0
  9
$MENU
  1
acad
  9
$ELEVATION
 40
0.0
  9
$PELEVATION
 40
0.0
  9
$THICKNESS
 40
0.0
  9
$LIMCHECK
 70
     0
  9
$BLIPMODE
 70
     0
  9
$CHAMFERA
 40
0.0
  9
$CHAMFERB
 40
0.0
  9
$CHAMFERC
 40
0.0
  9
$CHAMFERD
 40
0.0
  9
$SKPOLY
 70
     0
  9
$TDCREATE
 40
2449309.454956597
  9
$TDUPDATE
 40
2452481.555651840
  9
$TDINDWG
 40
0.0036076620
  9
$TDUSRTIMER
 40
0.0036076620
  9
$USRTIMER
 70
     1
  9
$ANGBASE
 50
0.0
  9
$ANGDIR
 70
     0
  9
$PDMODE
 70
     0
  9
$PDSIZE
 40
0.0
  9
$PLINEWID
 40
0.0
  9
$COORDS
 70
     1
  9
$SPLFRAME
 70
     0
  9
$SPLINETYPE
 70
     6
  9
$SPLINESEGS
 70
     8
  9
$ATTDIA
 70
     0
  9
$ATTREQ
 70
     1
  9
$HANDLING
 70
 10241
  9
$HANDSEED
  5
10B
  9
$SURFTAB1
 70
     6
  9
$SURFTAB2
 70
     6
  9
$SURFTYPE
 70
     6
  9
$SURFU
 70
     6
  9
$SURFV
 70
     6
  9
$UCSNAME
  2

  9
$UCSORG
 10
0.0
 20
0.0
 30
0.0
  9
$UCSXDIR
 10
1.0
 20
0.0
 30
0.0
  9
$UCSYDIR
 10
0.0
 20
1.0
 30
0.0
  9
$PUCSNAME
  2

  9
$PUCSORG
 10
0.0
 20
0.0
 30
0.0
  9
$PUCSXDIR
 10
1.0
 20
0.0
 30
0.0
  9
$PUCSYDIR
 10
0.0
 20
1.0
 30
0.0
  9
$USERI1
 70
     0
  9
$USERI2
 70
     0
  9
$USERI3
 70
     0
  9
$USERI4
 70
     0
  9
$USERI5
 70
     0
  9
$USERR1
 40
0.0
  9
$USERR2
 40
0.0
  9
$USERR3
 40
0.0
  9
$USERR4
 40
0.0
  9
$USERR5
 40
0.0
  9
$WORLDVIEW
 70
     1
  9
$SHADEDGE
 70
     3
  9
$SHADEDIF
 70
    70
  9
$TILEMODE
 70
     1
  9
$MAXACTVP
 70
    16
  9
$PINSBASE
 10
0.0
 20
0.0
 30
0.0
  9
$PLIMCHECK
 70
     0
  9
$PEXTMIN
 10
1.000000000000000E+20
 20
1.000000000000000E+20
 30
1.000000000000000E+20
  9
$PEXTMAX
 10
-1.000000000000000E+20
 20
-1.000000000000000E+20
 30
-1.000000000000000E+20
  9
$PLIMMIN
 10
0.0
 20
0.0
  9
$PLIMMAX
 10
12.0
 20
9.0
  9
$UNITMODE
 70
     0
  9
$VISRETAIN
 70
     0
  9
$PLINEGEN
 70
     0
  9
$PSLTSCALE
 70
     1
  9
$TREEDEPTH
 70
  3020
  9
$PICKSTYLE
 70
     1
  9
$CMLSTYLE
  2
STANDARD
  9
$CMLJUST
 70
     0
  9
$CMLSCALE
 40
1.0
  9
$SAVEIMAGES
 70
     1
  0
ENDSEC
  0
SECTION
  2
CLASSES
  0
CLASS
  1
ACDBDICTIONARYWDFLT
  2
AcDbDictionaryWithDefault
  3
AutoCAD 2000
 90
    32768
280
     0
281
     0
  0
CLASS
  1
ACDBPLACEHOLDER
  2
AcDbPlaceHolder
  3
AutoCAD 2000
 90
    32768
280
     0
281
     0
  0
CLASS
  1
LAYOUT
  2
AcDbLayout
  3
AutoCAD 2000
 90
    32768
280
     0
281
     0
  0
CLASS
  1
LONG_TRANSACTION
  2
AcDbLongTransaction
  3
AutoCAD 2000
 90
    32768
280
     0
281
     0
  0
CLASS
  1
LWPOLYLINE
  2
AcDbPolyline
  3
AutoCAD 2000
 90
    32768
280
     0
281
     1
  0
CLASS
  1
HATCH
  2
AcDbHatch
  3
AutoCAD 2000
 90
    32768
280
     0
281
     1
  0
CLASS
  1
XRECORD
  2
AcDbXrecord
  3
AutoCAD 2000
 90
    32768
280
     0
281
     0
  0
ENDSEC
  0
SECTION
  2
TABLES
  0
TABLE
  2
VPORT
  5
79
330
0
100
AcDbSymbolTable
 70
     3
  0
VPORT
  5
100
330
79
100
AcDbSymbolTableRecord
100
AcDbViewportTableRecord
  2
*ACTIVE
 70
     0
 10
0.0
 20
0.0
 11
1.0
 21
1.0
 12
4.725000024447219
 22
6.682500034575351
 13
0.0
 23
0.0
 14
1.0
 24
1.0
 15
0.0
 25
0.0
 16
0.0
 26
0.0
 36
1.0
 17
0.0
 27
0.0
 37
0.0
 40
14.96118537978477
 41
1.421313506815365
 42
50.0
 43
0.0
 44
0.0
 50
0.0
 51
0.0
 71
     0
 72
   500
 73
     1
 74
     1
 75
     0
 76
     0
 77
     0
 78
     0
  0
ENDTAB
  0
TABLE
  2
LTYPE
  5
76
330
0
100
AcDbSymbolTable
 70
     1
  0
LTYPE
  5
84
330
76
100
AcDbSymbolTableRecord
100
AcDbLinetypeTableRecord
  2
BYBLOCK
 70
     0
  3

 72
    65
 73
     0
 40
0.0
  0
LTYPE
  5
85
330
76
100
AcDbSymbolTableRecord
100
AcDbLinetypeTableRecord
  2
BYLAYER
 70
     0
  3

 72
    65
 73
     0
 40
0.0
  0
LTYPE
  5
86
330
76
100
AcDbSymbolTableRecord
100
AcDbLinetypeTableRecord
  2
CONTINUOUS
 70
     0
  3
Solid line
 72
    65
 73
     0
 40
0.0
  0
ENDTAB
  0
TABLE
  2
LAYER
  5
73
330
0
100
AcDbSymbolTable
 70
     1
  0
LAYER
  5
81
330
73
100
AcDbSymbolTableRecord
100
AcDbLayerTableRecord
  2
0
 70
     0
 62
     7
  6
CONTINUOUS
  0
ENDTAB
  0
TABLE
  2
STYLE
  5
74
330
0
100
AcDbSymbolTable
 70
     2
  0
STYLE
  5
82
330
74
100
AcDbSymbolTableRecord
100
AcDbTextStyleTableRecord
  2
STANDARD
 70
     0
 40
0.0
 41
1.0
 50
0.0
 71
     0
 42
0.2
  3
txt
  4

  0
STYLE
  5
93
330
74
100
AcDbSymbolTableRecord
100
AcDbTextStyleTableRecord
  2
ROMANC
 70
     0
 40
0.2
 41
1.0
 50
0.0
 71
     0
 42
0.2
  3
ROMANC
  4

  0
ENDTAB
  0
TABLE
  2
VIEW
  5
77
330
0
100
AcDbSymbolTable
 70
     0
  0
ENDTAB
  0
TABLE
  2
UCS
  5
78
330
0
100
AcDbSymbolTable
 70
     0
  0
ENDTAB
  0
TABLE
  2
APPID
  5
7A
330
0
100
AcDbSymbolTable
 70
     2
  0
APPID
  5
83
330
7A
100
AcDbSymbolTableRecord
100
AcDbRegAppTableRecord
  2
ACAD
 70
     0
  0
APPID
  5
EE
330
7A
100
AcDbSymbolTableRecord
100
AcDbRegAppTableRecord
  2
DCO15
 70
     0
  0
ENDTAB
  0
TABLE
  2
DIMSTYLE
  5
7B
330
0
100
AcDbSymbolTable
 70
     1
  0
DIMSTYLE
105
AE
330
7B
100
AcDbSymbolTableRecord
100
AcDbDimStyleTableRecord
  2
STANDARD
 70
     0
  3

  4

  5

  6

  7

 40
1.0
 41
0.18
 42
0.0625
 43
0.38
 44
0.18
 45
0.0
 46
0.0
 47
0.0
 48
0.0
140
0.18
141
0.09
142
0.0
143
25.4
144
1.0
145
0.0
146
1.0
147
0.09
 71
     0
 72
     0
 73
     1
 74
     1
 75
     0
 76
     0
 77
     0
 78
     0
170
     0
171
     2
172
     0
173
     0
174
     0
175
     0
176
     0
177
     0
178
     0
270
     4
271
     4
272
     4
273
     4
274
     2
340
82
275
     0
280
     0
281
     0
282
     0
283
     1
284
     0
285
     0
286
     0
287
     5
288
     0
  0
ENDTAB
  0
TABLE
  2
BLOCK_RECORD
  5
72
330
0
100
AcDbSymbolTable
 70
     0
  0
BLOCK_RECORD
  5
8F
102
{ACAD_XDICTIONARY
360
103
102
}
330
72
100
AcDbSymbolTableRecord
100
AcDbBlockTableRecord
  2
*MODEL_SPACE
  0
BLOCK_RECORD
  5
8B
102
{ACAD_XDICTIONARY
360
101
102
}
330
72
100
AcDbSymbolTableRecord
100
AcDbBlockTableRecord
  2
*PAPER_SPACE
  0
ENDTAB
  0
ENDSEC
  0
SECTION
  2
BLOCKS
  0
BLOCK
  5
B3
330
8F
100
AcDbEntity
  8
0
100
AcDbBlockBegin
  2
*MODEL_SPACE
 70
     0
 10
0.0
 20
0.0
 30
0.0
  3
*MODEL_SPACE
  1

  0
ENDBLK
  5
B4
330
8F
100
AcDbEntity
  8
0
100
AcDbBlockEnd
  0
BLOCK
  5
B1
330
8B
100
AcDbEntity
 67
     1
  8
0
100
AcDbBlockBegin
  2
*PAPER_SPACE
 70
     0
 10
0.0
 20
0.0
 30
0.0
  3
*PAPER_SPACE
  1

  0
ENDBLK
  5
B2
330
8B
100
AcDbEntity
 67
     1
  8
0
100
AcDbBlockEnd
  0
ENDSEC
  0
SECTION
  2
ENTITIES
  0
TEXT
  5
B5
330
8F
100
AcDbEntity
  8
0
100
AcDbText
 10
4.756
 20
10.6725
 30
0.0
 40
0.100002
  1
2
  7
ROMANC
100
AcDbText
  0
TEXT
  5
B7
330
8F
100
AcDbEntity
  8
0
100
AcDbText
 10
2.005
 20
11.1285
 30
0.0
 40
0.3
  1
ESCALA  1:50
  7
ROMANC
100
AcDbText
  0
POLYLINE
  5
B8
330
8F
100
AcDbEntity
  8
0
100
AcDb2dPolyline
 66
     1
 10
0.0
 20
0.0
 30
0.0
 70
   129
  0
VERTEX
  5
105
330
B8
100
AcDbEntity
  8
0
100
AcDbVertex
100
AcDb2dVertex
 10
-0.5249999999999995
 20
14.1075
 30
0.0
  0
VERTEX
  5
106
330
B8
100
AcDbEntity
  8
0
100
AcDbVertex
100
AcDb2dVertex
 10
9.975000000000001
 20
14.1075
 30
0.0
  0
VERTEX
  5
107
330
B8
100
AcDbEntity
  8
0
100
AcDbVertex
100
AcDb2dVertex
 10
9.975000000000001
 20
-0.7425000000000006
 30
0.0
  0
VERTEX
  5
108
330
B8
100
AcDbEntity
  8
0
100
AcDbVertex
100
AcDb2dVertex
 10
-0.5249999999999995
 20
-0.7425000000000006
 30
0.0
  0
VERTEX
  5
109
330
B8
100
AcDbEntity
  8
0
100
AcDbVertex
100
AcDb2dVertex
 10
-0.5249999999999995
 20
14.1075
 30
0.0
  0
SEQEND
  5
10A
330
B8
100
AcDbEntity
  8
0
  0
TEXT
  5
BF
330
8F
100
AcDbEntity
  8
0
100
AcDbText
 10
2.024
 20
10.4595
 30
0.0
 40
0.3
  1
S = 87 dm
  7
ROMANC
100
AcDbText
  0
TEXT
  5
C0
330
8F
100
AcDbEntity
  8
0
100
AcDbText
 10
2.001
 20
9.889500000000001
 30
0.0
 40
0.3
  1
P = 36 dm
  7
ROMANC
100
AcDbText
  0
TEXT
  5
C1
330
8F
100
AcDbEntity
  8
0
100
AcDbText
 10
2.005
 20
11.7415
 30
0.0
 40
0.3
  1
TIPUS   NT87A
  7
ROMANC
100
AcDbText
  0
LINE
  5
C2
330
8F
100
AcDbEntity
  8
0
100
AcDbLine
 10
3.966
 20
5.448500000000001
 30
0.0
 11
3.814
 21
6.4615
 31
0.0
  0
LINE
  5
C3
330
8F
100
AcDbEntity
  8
0
100
AcDbLine
 10
3.958
 20
5.438500000000001
 30
0.0
 11
3.803999999999999
 21
6.4645
 31
0.0
  0
ARC
  5
C4
330
8F
100
AcDbEntity
  8
0
100
AcDbCircle
 10
4.275
 20
6.05225
 30
0.0
 40
0.61625
100
AcDbArc
 50
41.73099999999929
 51
138.3879999999976
  0
ARC
  5
C5
330
8F
100
AcDbEntity
  8
0
100
AcDbCircle
 10
4.275
 20
6.05225
 30
0.0
 40
0.62625
100
AcDbArc
 50
41.3969999999993
 51
138.8219999999976
  0
LINE
  5
C6
330
8F
100
AcDbEntity
  8
0
100
AcDbLine
 10
4.734999999999999
 20
6.4625
 30
0.0
 11
4.583
 21
5.448500000000001
 31
0.0
  0
LINE
  5
C7
330
8F
100
AcDbEntity
  8
0
100
AcDbLine
 10
4.745
 20
6.466500000000001
 30
0.0
 11
4.591
 21
5.438500000000001
 31
0.0
  0
LINE
  5
C8
330
8F
100
AcDbEntity
  8
0
100
AcDbLine
 10
4.583
 20
5.448500000000001
 30
0.0
 11
3.966
 21
5.448500000000001
 31
0.0
  0
LINE
  5
C9
330
8F
100
AcDbEntity
  8
0
100
AcDbLine
 10
4.591
 20
5.438500000000001
 30
0.0
 11
3.958
 21
5.438500000000001
 31
0.0
  0
LINE
  5
CA
330
8F
100
AcDbEntity
  8
0
100
AcDbLine
 10
3.975
 20
5.4585
 30
0.0
 11
3.825
 21
6.4585
 31
0.0
  0
LINE
  5
CB
330
8F
100
AcDbEntity
  8
0
100
AcDbLine
 10
4.724999999999999
 20
6.4585
 30
0.0
 11
4.574999999999999
 21
5.4585
 31
0.0
  0
TEXT
  5
CC
330
8F
100
AcDbEntity
  8
0
100
AcDbText
 10
4.155999999999999
 20
4.9605
 30
0.0
 40
0.075
  1
0.60
  7
ROMANC
100
AcDbText
  0
LINE
  5
CD
330
8F
100
AcDbEntity
  8
0
100
AcDbLine
 10
3.825
 20
4.9985
 30
0.0
 11
3.975
 21
4.9985
 31
0.0
  0
LINE
  5
CE
330
8F
100
AcDbEntity
  8
0
100
AcDbLine
 10
4.724999999999999
 20
4.9985
 30
0.0
 11
4.574999999999999
 21
4.9985
 31
0.0
  0
LINE
  5
CF
330
8F
100
AcDbEntity
  8
0
100
AcDbLine
 10
4.012999999999999
 20
5.0175
 30
0.0
 11
3.937
 21
4.9795
 31
0.0
  0
LINE
  5
D0
330
8F
100
AcDbEntity
  8
0
100
AcDbLine
 10
4.536999999999999
 20
4.9795
 30
0.0
 11
4.612999999999999
 21
5.0175
 31
0.0
  0
LINE
  5
D1
330
8F
100
AcDbEntity
  8
0
100
AcDbLine
 10
3.975
 20
5.4205
 30
0.0
 11
3.975
 21
4.9605
 31
0.0
  0
LINE
  5
D2
330
8F
100
AcDbEntity
  8
0
100
AcDbLine
 10
4.574999999999999
 20
5.4205
 30
0.0
 11
4.574999999999999
 21
4.9605
 31
0.0
  0
TEXT
  5
D3
330
8F
100
AcDbEntity
  8
0
100
AcDbText
 10
4.155999999999999
 20
6.9005
 30
0.0
 40
0.075
  1
0.90
  7
ROMANC
100
AcDbText
  0
LINE
  5
D4
330
8F
100
AcDbEntity
  8
0
100
AcDbLine
 10
4.118
 20
6.9375
 30
0.0
 11
3.825
 21
6.9375
 31
0.0
  0
LINE
  5
D5
330
8F
100
AcDbEntity
  8
0
100
AcDbLine
 10
4.429999999999999
 20
6.9375
 30
0.0
 11
4.724999999999999
 21
6.9375
 31
0.0
  0
LINE
  5
D6
330
8F
100
AcDbEntity
  8
0
100
AcDbLine
 10
3.787
 20
6.918499999999999
 30
0.0
 11
3.862999999999999
 21
6.9565
 31
0.0
  0
LINE
  5
D7
330
8F
100
AcDbEntity
  8
0
100
AcDbLine
 10
4.762999999999999
 20
6.9565
 30
0.0
 11
4.686999999999999
 21
6.918499999999999
 31
0.0
  0
LINE
  5
D8
330
8F
100
AcDbEntity
  8
0
100
AcDbLine
 10
3.825
 20
6.496500000000001
 30
0.0
 11
3.825
 21
6.9755
 31
0.0
  0
LINE
  5
D9
330
8F
100
AcDbEntity
  8
0
100
AcDbLine
 10
4.724999999999999
 20
6.496500000000001
 30
0.0
 11
4.724999999999999
 21
6.9755
 31
0.0
  0
LINE
  5
DA
330
8F
100
AcDbEntity
  8
0
100
AcDbLine
 10
4.574999999999999
 20
5.4585
 30
0.0
 11
3.975
 21
5.4585
 31
0.0
  0
TEXT
  5
DB
330
8F
100
AcDbEntity
  8
0
100
AcDbText
 10
5.046999999999999
 20
5.8485
 30
0.0
 40
0.075
  1
1.00
 50
90.0
  7
ROMANC
100
AcDbText
  0
LINE
  5
DC
330
8F
100
AcDbEntity
  8
0
100
AcDbLine
 10
5.009999999999999
 20
5.8105
 30
0.0
 11
5.009999999999999
 21
5.4585
 31
0.0
  0
LINE
  5
DD
330
8F
100
AcDbEntity
  8
0
100
AcDbLine
 10
5.009999999999999
 20
6.105500000000001
 30
0.0
 11
5.009999999999999
 21
6.4585
 31
0.0
  0
LINE
  5
DE
330
8F
100
AcDbEntity
  8
0
100
AcDbLine
 10
5.028999999999999
 20
5.4205
 30
0.0
 11
4.990999999999999
 21
5.4965
 31
0.0
  0
LINE
  5
DF
330
8F
100
AcDbEntity
  8
0
100
AcDbLine
 10
4.990999999999999
 20
6.496500000000001
 30
0.0
 11
5.028999999999999
 21
6.4205
 31
0.0
  0
LINE
  5
E0
330
8F
100
AcDbEntity
  8
0
100
AcDbLine
 10
4.612999999999999
 20
5.4585
 30
0.0
 11
5.048
 21
5.4585
 31
0.0
  0
LINE
  5
E1
330
8F
100
AcDbEntity
  8
0
100
AcDbLine
 10
4.762999999999999
 20
6.4585
 30
0.0
 11
5.048
 21
6.4585
 31
0.0
  0
ARC
  5
E2
330
8F
100
AcDbEntity
  8
0
100
AcDbCircle
 10
4.275
 20
6.05225
 30
0.0
 40
0.60625
100
AcDbArc
 50
42.07499999999929
 51
137.9249999999976
  0
TEXT
  5
E3
330
8F
100
AcDbEntity
  8
0
100
AcDbText
 10
5.477
 20
5.948500000000001
 30
0.0
 40
0.075
  1
1.20
 50
90.0
  7
ROMANC
100
AcDbText
  0
LINE
  5
E4
330
8F
100
AcDbEntity
  8
0
100
AcDbLine
 10
5.439
 20
5.9105
 30
0.0
 11
5.439
 21
5.4585
 31
0.0
  0
LINE
  5
E5
330
8F
100
AcDbEntity
  8
0
100
AcDbLine
 10
5.439
 20
6.2055
 30
0.0
 11
5.439
 21
6.6585
 31
0.0
  0
LINE
  5
E6
330
8F
100
AcDbEntity
  8
0
100
AcDbLine
 10
5.458
 20
5.4205
 30
0.0
 11
5.419999999999999
 21
5.4965
 31
0.0
  0
LINE
  5
E7
330
8F
100
AcDbEntity
  8
0
100
AcDbLine
 10
5.419999999999999
 20
6.6965
 30
0.0
 11
5.458
 21
6.6205
 31
0.0
  0
LINE
  5
E8
330
8F
100
AcDbEntity
  8
0
100
AcDbLine
 10
4.612999999999999
 20
5.4585
 30
0.0
 11
5.477
 21
5.4585
 31
0.0
  0
LINE
  5
E9
330
8F
100
AcDbEntity
  8
0
100
AcDbLine
 10
4.293999999999999
 20
6.6585
 30
0.0
 11
5.477
 21
6.6585
 31
0.0
  0
ENDSEC
  0
SECTION
  2
OBJECTS
  0
DICTIONARY
  5
7D
330
0
100
AcDbDictionary
  3
ACAD_GROUP
350
7E
  3
ACAD_LAYOUT
350
8A
  3
ACAD_MLINESTYLE
350
87
  3
ACAD_PLOTSETTINGS
350
89
  3
ASE_INDEX_DICTIONARY
350
ED
1001
ACAD
1000
TREAT_AS_HARD
1070
     0
  0
DICTIONARY
  5
103
330
8F
100
AcDbDictionary
  3
ACAD_LAYOUTSELFREF
350
104
  0
DICTIONARY
  5
101
330
8B
100
AcDbDictionary
  3
ACAD_LAYOUTSELFREF
350
102
  0
DICTIONARY
  5
7E
102
{ACAD_REACTORS
330
7D
102
}
330
7D
100
AcDbDictionary
1001
ACAD
1000
TREAT_AS_HARD
1070
     0
  0
DICTIONARY
  5
8A
102
{ACAD_REACTORS
330
7D
102
}
330
7D
100
AcDbDictionary
1001
ACAD
1000
TREAT_AS_HARD
1070
     0
  0
DICTIONARY
  5
87
102
{ACAD_REACTORS
330
7D
102
}
330
7D
100
AcDbDictionary
  3
STANDARD
350
88
1001
ACAD
1000
TREAT_AS_HARD
1070
     0
  0
DICTIONARY
  5
89
102
{ACAD_REACTORS
330
7D
102
}
330
7D
100
AcDbDictionary
1001
ACAD
1000
TREAT_AS_HARD
1070
     0
  0
DICTIONARY
  5
ED
102
{ACAD_REACTORS
330
7D
102
}
330
7D
100
AcDbDictionary
  3
ASEBLOCKHIERARCHYINDEXRECORD
350
EF
1001
DCO15
1040
1440929289.559
1001
ACAD
1000
TREAT_AS_HARD
1070
     0
  0
XRECORD
  5
104
102
{ACAD_REACTORS
330
103
102
}
330
103
100
AcDbXrecord
340
8F
  0
XRECORD
  5
102
102
{ACAD_REACTORS
330
101
102
}
330
101
100
AcDbXrecord
340
8B
  0
MLINESTYLE
  5
88
102
{ACAD_REACTORS
330
87
102
}
330
87
100
AcDbMlineStyle
  2
STANDARD
 70
     0
  3

 62
   256
 51
90.0
 52
90.0
 71
     2
 49
0.5
 62
   256
  6
BYLAYER
 49
-0.5
 62
   256
  6
BYLAYER
  0
XRECORD
  5
EF
102
{ACAD_REACTORS
330
ED
102
}
330
ED
100
AcDbXrecord
  0
ENDSEC
  0
EOF
