  0
SECTION
  2
HEADER
  9
$ACADVER
  1
AC1009
  9
$INSBASE
 10
105.464027
 20
-4.528761
 30
0.0
  9
$EXTMIN
 10
281.395795
 20
29.897444
 30
0.0
  9
$EXTMAX
 10
291.895795
 20
44.747444
 30
0.0
  9
$LIMMIN
 10
0.0
 20
0.0
  9
$LIMMAX
 10
410.0
 20
287.0
  9
$ORTHOMODE
 70
     1
  9
$REGENMODE
 70
     1
  9
$FILLMODE
 70
     1
  9
$QTEXTMODE
 70
     0
  9
$MIRRTEXT
 70
     1
  9
$DRAGMODE
 70
     2
  9
$LTSCALE
 40
25.0
  9
$OSMODE
 70
     0
  9
$ATTMODE
 70
     1
  9
$TEXTSIZE
 40
0.1
  9
$TRACEWID
 40
1.0
  9
$TEXTSTYLE
  7
ROMANC
  9
$CLAYER
  8
0
  9
$CELTYPE
  6
BYLAYER
  9
$CECOLOR
 62
   256
  9
$DIMSCALE
 40
1.5
  9
$DIMASZ
 40
0.1
  9
$DIMEXO
 40
0.01
  9
$DIMDLI
 40
7.0
  9
$DIMRND
 40
0.0
  9
$DIMDLE
 40
0.0
  9
$DIMEXE
 40
0.01
  9
$DIMTP
 40
0.0
  9
$DIMTM
 40
0.0
  9
$DIMTXT
 40
0.05
  9
$DIMCEN
 40
0.1
  9
$DIMTSZ
 40
0.0
  9
$DIMTOL
 70
     0
  9
$DIMLIM
 70
     0
  9
$DIMTIH
 70
     0
  9
$DIMTOH
 70
     0
  9
$DIMSE1
 70
     0
  9
$DIMSE2
 70
     0
  9
$DIMTAD
 70
     1
  9
$DIMZIN
 70
     0
  9
$DIMBLK
  1

  9
$DIMASO
 70
     1
  9
$DIMSHO
 70
     0
  9
$DIMPOST
  1

  9
$DIMAPOST
  1

  9
$DIMALT
 70
     0
  9
$DIMALTD
 70
     2
  9
$DIMALTF
 40
25.4
  9
$DIMLFAC
 40
1.0
  9
$DIMTOFL
 70
     1
  9
$DIMTVP
 40
0.0
  9
$DIMTIX
 70
     1
  9
$DIMSOXD
 70
     0
  9
$DIMSAH
 70
     0
  9
$DIMBLK1
  1

  9
$DIMBLK2
  1

  9
$DIMSTYLE
  2
SILVIA
  9
$DIMCLRD
 70
     0
  9
$DIMCLRE
 70
     0
  9
$DIMCLRT
 70
     0
  9
$DIMTFAC
 40
70.0
  9
$DIMGAP
 40
0.09
  9
$LUNITS
 70
     2
  9
$LUPREC
 70
     2
  9
$SKETCHINC
 40
1.0
  9
$FILLETRAD
 40
0.0
  9
$AUNITS
 70
     0
  9
$AUPREC
 70
     0
  9
$MENU
  1
acad
  9
$ELEVATION
 40
0.0
  9
$PELEVATION
 40
0.0
  9
$THICKNESS
 40
0.0
  9
$LIMCHECK
 70
     0
  9
$BLIPMODE
 70
     0
  9
$CHAMFERA
 40
0.0
  9
$CHAMFERB
 40
0.0
  9
$SKPOLY
 70
     0
  9
$TDCREATE
 40
2450043.719844329
  9
$TDUPDATE
 40
2450861.370696759
  9
$TDINDWG
 40
0.0511148148
  9
$TDUSRTIMER
 40
0.0511148148
  9
$USRTIMER
 70
     1
  9
$ANGBASE
 50
0.0
  9
$ANGDIR
 70
     0
  9
$PDMODE
 70
     0
  9
$PDSIZE
 40
0.0
  9
$PLINEWID
 40
0.0
  9
$COORDS
 70
     2
  9
$SPLFRAME
 70
     0
  9
$SPLINETYPE
 70
     6
  9
$SPLINESEGS
 70
     8
  9
$ATTDIA
 70
     0
  9
$ATTREQ
 70
     1
  9
$HANDLING
 70
     0
  9
$HANDSEED
  5
0
  9
$SURFTAB1
 70
     6
  9
$SURFTAB2
 70
     6
  9
$SURFTYPE
 70
     6
  9
$SURFU
 70
     6
  9
$SURFV
 70
     6
  9
$UCSNAME
  2

  9
$UCSORG
 10
0.0
 20
0.0
 30
0.0
  9
$UCSXDIR
 10
1.0
 20
0.0
 30
0.0
  9
$UCSYDIR
 10
0.0
 20
1.0
 30
0.0
  9
$PUCSNAME
  2

  9
$PUCSORG
 10
0.0
 20
0.0
 30
0.0
  9
$PUCSXDIR
 10
1.0
 20
0.0
 30
0.0
  9
$PUCSYDIR
 10
0.0
 20
1.0
 30
0.0
  9
$USERI1
 70
     0
  9
$USERI2
 70
     0
  9
$USERI3
 70
     0
  9
$USERI4
 70
     0
  9
$USERI5
 70
     0
  9
$USERR1
 40
0.0
  9
$USERR2
 40
0.0
  9
$USERR3
 40
0.0
  9
$USERR4
 40
0.0
  9
$USERR5
 40
0.0
  9
$WORLDVIEW
 70
     1
  9
$SHADEDGE
 70
     3
  9
$SHADEDIF
 70
    70
  9
$TILEMODE
 70
     1
  9
$MAXACTVP
 70
    16
  9
$PINSBASE
 10
0.0
 20
0.0
 30
0.0
  9
$PLIMCHECK
 70
     0
  9
$PEXTMIN
 10
1.000000E+20
 20
1.000000E+20
 30
1.000000E+20
  9
$PEXTMAX
 10
-1.000000E+20
 20
-1.000000E+20
 30
-1.000000E+20
  9
$PLIMMIN
 10
0.0
 20
0.0
  9
$PLIMMAX
 10
12.0
 20
9.0
  9
$UNITMODE
 70
     0
  9
$VISRETAIN
 70
     0
  9
$PLINEGEN
 70
     0
  9
$PSLTSCALE
 70
     0
  9
$TREEDEPTH
 70
  3020
  9
$DWGCODEPAGE
  3
iso8859-1
  0
ENDSEC
  0
SECTION
  2
TABLES
  0
TABLE
  2
VPORT
 70
     2
  0
VPORT
  2
*ACTIVE
 70
     0
 10
0.0
 20
0.0
 11
1.0
 21
1.0
 12
292.922009
 22
37.322444
 13
0.0
 23
0.0
 14
1.0
 24
1.0
 15
10.0
 25
10.0
 16
0.0
 26
0.0
 36
1.0
 17
0.0
 27
0.0
 37
0.0
 40
14.85
 41
1.552352
 42
50.0
 43
0.0
 44
0.0
 50
0.0
 51
0.0
 71
     0
 72
   100
 73
     1
 74
     0
 75
     0
 76
     0
 77
     0
 78
     1
  0
ENDTAB
  0
TABLE
  2
LTYPE
 70
     1
  0
LTYPE
  2
CONTINUOUS
 70
    64
  3
Solid line
 72
    65
 73
     0
 40
0.0
  0
ENDTAB
  0
TABLE
  2
LAYER
 70
     3
  0
LAYER
  2
0
 70
    64
 62
     7
  6
CONTINUOUS
  0
LAYER
  2
MESURA
 70
     0
 62
     7
  6
CONTINUOUS
  0
LAYER
  2
DEFPOINTS
 70
    64
 62
     7
  6
CONTINUOUS
  0
ENDTAB
  0
TABLE
  2
STYLE
 70
     2
  0
STYLE
  2
STANDARD
 70
     0
 40
0.0
 41
1.0
 50
0.0
 71
     0
 42
0.1
  3
txt
  4

  0
STYLE
  2
ROMANC
 70
    64
 40
0.0
 41
1.0
 50
0.0
 71
     0
 42
0.1
  3
romanc
  4

  0
ENDTAB
  0
TABLE
  2
VIEW
 70
     0
  0
ENDTAB
  0
TABLE
  2
UCS
 70
     0
  0
ENDTAB
  0
TABLE
  2
APPID
 70
     1
  0
APPID
  2
ACAD
 70
    64
  0
ENDTAB
  0
TABLE
  2
DIMSTYLE
 70
     1
  0
DIMSTYLE
  2
SILVIA
 70
    64
  3

  4

  5

  6

  7

 40
1.5
 41
0.1
 42
0.01
 43
7.0
 44
0.01
 45
0.0
 46
0.0
 47
0.0
 48
0.0
140
0.05
141
0.1
142
0.0
143
25.4
144
1.0
145
0.0
146
70.0
147
0.09
 71
     0
 72
     0
 73
     0
 74
     0
 75
     0
 76
     0
 77
     1
 78
     0
170
     0
171
     2
172
     1
173
     0
174
     1
175
     0
176
     0
177
     0
178
     0
  0
ENDTAB
  0
ENDSEC
  0
SECTION
  2
BLOCKS
  0
BLOCK
  8
0
  2
*D10
 70
    65
 10
0.0
 20
0.0
 30
0.0
  3
*D
  0
LINE
  8
0
  6
BYBLOCK
 62
     0
 10
284.725545
 20
35.553125
 30
0.0
 11
284.725545
 21
35.196727
 31
0.0
  0
LINE
  8
0
  6
BYBLOCK
 62
     0
 10
284.925545
 20
35.553125
 30
0.0
 11
284.925545
 21
35.196727
 31
0.0
  0
LINE
  8
0
  6
BYBLOCK
 62
     0
 10
284.575545
 20
35.211727
 30
0.0
 11
284.425545
 21
35.211727
 31
0.0
  0
LINE
  8
0
  6
BYBLOCK
 62
     0
 10
285.075545
 20
35.211727
 30
0.0
 11
285.225545
 21
35.211727
 31
0.0
  0
SOLID
  8
0
  6
BYBLOCK
 62
     0
 10
284.575545
 20
35.236727
 30
0.0
 11
284.575545
 21
35.186727
 31
0.0
 12
284.725545
 22
35.211727
 32
0.0
 13
284.725545
 23
35.211727
 33
0.0
  0
SOLID
  8
0
  6
BYBLOCK
 62
     0
 10
285.075545
 20
35.236727
 30
0.0
 11
285.075545
 21
35.186727
 31
0.0
 12
284.925545
 22
35.211727
 32
0.0
 13
284.925545
 23
35.211727
 33
0.0
  0
LINE
  8
0
  6
BYBLOCK
 62
     0
 10
284.725545
 20
35.211727
 30
0.0
 11
284.925545
 21
35.211727
 31
0.0
  0
TEXT
  8
0
  6
BYBLOCK
 62
     0
 10
284.458489
 20
35.249227
 30
0.0
 40
0.075
  1
0.20
  7
ROMANC
 72
     1
 11
284.583489
 21
35.286727
 31
0.0
 73
     2
  0
POINT
  8
DEFPOINTS
  6
BYBLOCK
 62
     0
 10
284.725545
 20
35.568125
 30
0.0
  0
POINT
  8
DEFPOINTS
  6
BYBLOCK
 62
     0
 10
284.925545
 20
35.568125
 30
0.0
  0
POINT
  8
DEFPOINTS
  6
BYBLOCK
 62
     0
 10
284.925545
 20
35.211727
 30
0.0
  0
ENDBLK
  8
0
  0
BLOCK
  8
0
  2
*D11
 70
    65
 10
0.0
 20
0.0
 30
0.0
  3
*D
  0
LINE
  8
0
  6
BYBLOCK
 62
     0
 10
284.925545
 20
35.553125
 30
0.0
 11
284.925545
 21
35.196727
 31
0.0
  0
LINE
  8
0
  6
BYBLOCK
 62
     0
 10
285.325545
 20
35.553125
 30
0.0
 11
285.325545
 21
35.196727
 31
0.0
  0
LINE
  8
0
  6
BYBLOCK
 62
     0
 10
284.775545
 20
35.211727
 30
0.0
 11
284.625545
 21
35.211727
 31
0.0
  0
LINE
  8
0
  6
BYBLOCK
 62
     0
 10
285.475545
 20
35.211727
 30
0.0
 11
285.625545
 21
35.211727
 31
0.0
  0
SOLID
  8
0
  6
BYBLOCK
 62
     0
 10
284.775545
 20
35.236727
 30
0.0
 11
284.775545
 21
35.186727
 31
0.0
 12
284.925545
 22
35.211727
 32
0.0
 13
284.925545
 23
35.211727
 33
0.0
  0
SOLID
  8
0
  6
BYBLOCK
 62
     0
 10
285.475545
 20
35.236727
 30
0.0
 11
285.475545
 21
35.186727
 31
0.0
 12
285.325545
 22
35.211727
 32
0.0
 13
285.325545
 23
35.211727
 33
0.0
  0
LINE
  8
0
  6
BYBLOCK
 62
     0
 10
284.925545
 20
35.211727
 30
0.0
 11
285.325545
 21
35.211727
 31
0.0
  0
TEXT
  8
0
  6
BYBLOCK
 62
     0
 10
285.000545
 20
35.249227
 30
0.0
 40
0.075
  1
0.40
  7
ROMANC
 72
     1
 11
285.125545
 21
35.286727
 31
0.0
 73
     2
  0
POINT
  8
DEFPOINTS
  6
BYBLOCK
 62
     0
 10
284.925545
 20
35.568125
 30
0.0
  0
POINT
  8
DEFPOINTS
  6
BYBLOCK
 62
     0
 10
285.325545
 20
35.568125
 30
0.0
  0
POINT
  8
DEFPOINTS
  6
BYBLOCK
 62
     0
 10
285.325545
 20
35.211727
 30
0.0
  0
ENDBLK
  8
0
  0
BLOCK
  8
0
  2
*D13
 70
    65
 10
0.0
 20
0.0
 30
0.0
  3
*D
  0
LINE
  8
0
  6
BYBLOCK
 62
     0
 10
285.325545
 20
35.553125
 30
0.0
 11
285.325545
 21
35.196727
 31
0.0
  0
LINE
  8
0
  6
BYBLOCK
 62
     0
 10
285.525545
 20
35.553125
 30
0.0
 11
285.525545
 21
35.196727
 31
0.0
  0
LINE
  8
0
  6
BYBLOCK
 62
     0
 10
285.175545
 20
35.211727
 30
0.0
 11
285.025545
 21
35.211727
 31
0.0
  0
LINE
  8
0
  6
BYBLOCK
 62
     0
 10
285.675545
 20
35.211727
 30
0.0
 11
285.825545
 21
35.211727
 31
0.0
  0
SOLID
  8
0
  6
BYBLOCK
 62
     0
 10
285.175545
 20
35.236727
 30
0.0
 11
285.175545
 21
35.186727
 31
0.0
 12
285.325545
 22
35.211727
 32
0.0
 13
285.325545
 23
35.211727
 33
0.0
  0
SOLID
  8
0
  6
BYBLOCK
 62
     0
 10
285.675545
 20
35.236727
 30
0.0
 11
285.675545
 21
35.186727
 31
0.0
 12
285.525545
 22
35.211727
 32
0.0
 13
285.525545
 23
35.211727
 33
0.0
  0
LINE
  8
0
  6
BYBLOCK
 62
     0
 10
285.325545
 20
35.211727
 30
0.0
 11
285.525545
 21
35.211727
 31
0.0
  0
TEXT
  8
0
  6
BYBLOCK
 62
     0
 10
285.562485
 20
35.249227
 30
0.0
 40
0.075
  1
0.20
  7
ROMANC
 72
     1
 11
285.687485
 21
35.286727
 31
0.0
 73
     2
  0
POINT
  8
DEFPOINTS
  6
BYBLOCK
 62
     0
 10
285.325545
 20
35.568125
 30
0.0
  0
POINT
  8
DEFPOINTS
  6
BYBLOCK
 62
     0
 10
285.525545
 20
35.568125
 30
0.0
  0
POINT
  8
DEFPOINTS
  6
BYBLOCK
 62
     0
 10
285.525545
 20
35.211727
 30
0.0
  0
ENDBLK
  8
0
  0
BLOCK
  8
0
  2
*D14
 70
    65
 10
0.0
 20
0.0
 30
0.0
  3
*D
  0
LINE
  8
0
  6
BYBLOCK
 62
     0
 10
284.725545
 20
35.553125
 30
0.0
 11
284.725545
 21
34.943948
 31
0.0
  0
LINE
  8
0
  6
BYBLOCK
 62
     0
 10
285.525545
 20
35.553125
 30
0.0
 11
285.525545
 21
34.943948
 31
0.0
  0
LINE
  8
0
  6
BYBLOCK
 62
     0
 10
284.875545
 20
34.958948
 30
0.0
 11
285.375545
 21
34.958948
 31
0.0
  0
SOLID
  8
0
  6
BYBLOCK
 62
     0
 10
284.875545
 20
34.983948
 30
0.0
 11
284.875545
 21
34.933948
 31
0.0
 12
284.725545
 22
34.958948
 32
0.0
 13
284.725545
 23
34.958948
 33
0.0
  0
SOLID
  8
0
  6
BYBLOCK
 62
     0
 10
285.375545
 20
34.983948
 30
0.0
 11
285.375545
 21
34.933948
 31
0.0
 12
285.525545
 22
34.958948
 32
0.0
 13
285.525545
 23
34.958948
 33
0.0
  0
TEXT
  8
0
  6
BYBLOCK
 62
     0
 10
285.000545
 20
34.996448
 30
0.0
 40
0.075
  1
0.80
  7
ROMANC
 72
     1
 11
285.125545
 21
35.033948
 31
0.0
 73
     2
  0
POINT
  8
DEFPOINTS
  6
BYBLOCK
 62
     0
 10
284.725545
 20
35.568125
 30
0.0
  0
POINT
  8
DEFPOINTS
  6
BYBLOCK
 62
     0
 10
285.525545
 20
35.568125
 30
0.0
  0
POINT
  8
DEFPOINTS
  6
BYBLOCK
 62
     0
 10
285.525545
 20
34.958948
 30
0.0
  0
ENDBLK
  8
0
  0
BLOCK
  8
0
  2
*D16
 70
    65
 10
0.0
 20
0.0
 30
0.0
  3
*D
  0
LINE
  8
0
  6
BYBLOCK
 62
     0
 10
285.140545
 20
35.418125
 30
0.0
 11
286.035691
 21
35.418125
 31
0.0
  0
LINE
  8
0
  6
BYBLOCK
 62
     0
 10
285.340545
 20
35.568125
 30
0.0
 11
286.035691
 21
35.568125
 31
0.0
  0
LINE
  8
0
  6
BYBLOCK
 62
     0
 10
286.020691
 20
35.268125
 30
0.0
 11
286.020691
 21
35.118125
 31
0.0
  0
LINE
  8
0
  6
BYBLOCK
 62
     0
 10
286.020691
 20
35.718125
 30
0.0
 11
286.020691
 21
35.868125
 31
0.0
  0
SOLID
  8
0
  6
BYBLOCK
 62
     0
 10
285.995691
 20
35.268125
 30
0.0
 11
286.045691
 21
35.268125
 31
0.0
 12
286.020691
 22
35.418125
 32
0.0
 13
286.020691
 23
35.418125
 33
0.0
  0
SOLID
  8
0
  6
BYBLOCK
 62
     0
 10
285.995691
 20
35.718125
 30
0.0
 11
286.045691
 21
35.718125
 31
0.0
 12
286.020691
 22
35.568125
 32
0.0
 13
286.020691
 23
35.568125
 33
0.0
  0
LINE
  8
0
  6
BYBLOCK
 62
     0
 10
286.020691
 20
35.418125
 30
0.0
 11
286.020691
 21
35.568125
 31
0.0
  0
TEXT
  8
0
  6
BYBLOCK
 62
     0
 10
285.983191
 20
35.106788
 30
0.0
 40
0.075
  1
0.15
 50
90.0
  7
ROMANC
 72
     1
 11
285.945691
 21
35.231788
 31
0.0
 73
     2
  0
POINT
  8
DEFPOINTS
  6
BYBLOCK
 62
     0
 10
285.125545
 20
35.418125
 30
0.0
  0
POINT
  8
DEFPOINTS
  6
BYBLOCK
 62
     0
 10
285.325545
 20
35.568125
 30
0.0
  0
POINT
  8
DEFPOINTS
  6
BYBLOCK
 62
     0
 10
286.020691
 20
35.568125
 30
0.0
  0
ENDBLK
  8
0
  0
BLOCK
  8
0
  2
*D17
 70
    65
 10
0.0
 20
0.0
 30
0.0
  3
*D
  0
LINE
  8
0
  6
BYBLOCK
 62
     0
 10
285.540545
 20
35.568125
 30
0.0
 11
286.035691
 21
35.568125
 31
0.0
  0
LINE
  8
0
  6
BYBLOCK
 62
     0
 10
285.640545
 20
36.318125
 30
0.0
 11
286.035691
 21
36.318125
 31
0.0
  0
LINE
  8
0
  6
BYBLOCK
 62
     0
 10
286.020691
 20
35.418125
 30
0.0
 11
286.020691
 21
35.268125
 31
0.0
  0
LINE
  8
0
  6
BYBLOCK
 62
     0
 10
286.020691
 20
36.468125
 30
0.0
 11
286.020691
 21
36.618125
 31
0.0
  0
SOLID
  8
0
  6
BYBLOCK
 62
     0
 10
285.995691
 20
35.418125
 30
0.0
 11
286.045691
 21
35.418125
 31
0.0
 12
286.020691
 22
35.568125
 32
0.0
 13
286.020691
 23
35.568125
 33
0.0
  0
SOLID
  8
0
  6
BYBLOCK
 62
     0
 10
285.995691
 20
36.468125
 30
0.0
 11
286.045691
 21
36.468125
 31
0.0
 12
286.020691
 22
36.318125
 32
0.0
 13
286.020691
 23
36.318125
 33
0.0
  0
LINE
  8
0
  6
BYBLOCK
 62
     0
 10
286.020691
 20
35.568125
 30
0.0
 11
286.020691
 21
36.318125
 31
0.0
  0
TEXT
  8
0
  6
BYBLOCK
 62
     0
 10
285.983191
 20
35.818125
 30
0.0
 40
0.075
  1
0.75
 50
90.0
  7
ROMANC
 72
     1
 11
285.945691
 21
35.943125
 31
0.0
 73
     2
  0
POINT
  8
DEFPOINTS
  6
BYBLOCK
 62
     0
 10
285.525545
 20
35.568125
 30
0.0
  0
POINT
  8
DEFPOINTS
  6
BYBLOCK
 62
     0
 10
285.625545
 20
36.318125
 30
0.0
  0
POINT
  8
DEFPOINTS
  6
BYBLOCK
 62
     0
 10
286.020691
 20
36.318125
 30
0.0
  0
ENDBLK
  8
0
  0
BLOCK
  8
0
  2
*D18
 70
    65
 10
0.0
 20
0.0
 30
0.0
  3
*D
  0
LINE
  8
0
  6
BYBLOCK
 62
     0
 10
285.140545
 20
35.418125
 30
0.0
 11
286.344809
 21
35.418125
 31
0.0
  0
LINE
  8
0
  6
BYBLOCK
 62
     0
 10
285.140545
 20
36.818125
 30
0.0
 11
286.344809
 21
36.818125
 31
0.0
  0
LINE
  8
0
  6
BYBLOCK
 62
     0
 10
286.329809
 20
35.568125
 30
0.0
 11
286.329809
 21
36.668125
 31
0.0
  0
SOLID
  8
0
  6
BYBLOCK
 62
     0
 10
286.304809
 20
35.568125
 30
0.0
 11
286.354809
 21
35.568125
 31
0.0
 12
286.329809
 22
35.418125
 32
0.0
 13
286.329809
 23
35.418125
 33
0.0
  0
SOLID
  8
0
  6
BYBLOCK
 62
     0
 10
286.304809
 20
36.668125
 30
0.0
 11
286.354809
 21
36.668125
 31
0.0
 12
286.329809
 22
36.818125
 32
0.0
 13
286.329809
 23
36.818125
 33
0.0
  0
TEXT
  8
0
  6
BYBLOCK
 62
     0
 10
286.292309
 20
35.987768
 30
0.0
 40
0.075
  1
1.40
 50
90.0
  7
ROMANC
 72
     1
 11
286.254809
 21
36.118125
 31
0.0
 73
     2
  0
POINT
  8
DEFPOINTS
  6
BYBLOCK
 62
     0
 10
285.125545
 20
35.418125
 30
0.0
  0
POINT
  8
DEFPOINTS
  6
BYBLOCK
 62
     0
 10
285.125545
 20
36.818125
 30
0.0
  0
POINT
  8
DEFPOINTS
  6
BYBLOCK
 62
     0
 10
286.329809
 20
36.818125
 30
0.0
  0
ENDBLK
  8
0
  0
BLOCK
  8
0
  2
*D19
 70
    65
 10
0.0
 20
0.0
 30
0.0
  3
*D
  0
LINE
  8
0
  6
BYBLOCK
 62
     0
 10
284.625545
 20
36.333125
 30
0.0
 11
284.625545
 21
36.333125
 31
0.0
  0
LINE
  8
0
  6
BYBLOCK
 62
     0
 10
285.625545
 20
36.333125
 30
0.0
 11
285.625545
 21
36.333125
 31
0.0
  0
LINE
  8
0
  6
BYBLOCK
 62
     0
 10
284.775545
 20
36.318125
 30
0.0
 11
285.475545
 21
36.318125
 31
0.0
  0
SOLID
  8
0
  6
BYBLOCK
 62
     0
 10
284.775545
 20
36.343125
 30
0.0
 11
284.775545
 21
36.293125
 31
0.0
 12
284.625545
 22
36.318125
 32
0.0
 13
284.625545
 23
36.318125
 33
0.0
  0
SOLID
  8
0
  6
BYBLOCK
 62
     0
 10
285.475545
 20
36.343125
 30
0.0
 11
285.475545
 21
36.293125
 31
0.0
 12
285.625545
 22
36.318125
 32
0.0
 13
285.625545
 23
36.318125
 33
0.0
  0
TEXT
  8
0
  6
BYBLOCK
 62
     0
 10
284.995188
 20
36.355625
 30
0.0
 40
0.075
  1
1.00
  7
ROMANC
 72
     1
 11
285.125545
 21
36.393125
 31
0.0
 73
     2
  0
POINT
  8
DEFPOINTS
  6
BYBLOCK
 62
     0
 10
284.625545
 20
36.318125
 30
0.0
  0
POINT
  8
DEFPOINTS
  6
BYBLOCK
 62
     0
 10
285.625545
 20
36.318125
 30
0.0
  0
POINT
  8
DEFPOINTS
  6
BYBLOCK
 62
     0
 10
285.625545
 20
36.318125
 30
0.0
  0
ENDBLK
  8
0
  0
BLOCK
  8
0
  2
*D20
 70
    65
 10
0.0
 20
0.0
 30
0.0
  3
*D
  0
LINE
  8
0
  6
BYBLOCK
 62
     0
 10
285.522347
 20
35.059728
 30
0.0
 11
285.522347
 21
34.635995
 31
0.0
  0
LINE
  8
0
  6
BYBLOCK
 62
     0
 10
285.922347
 20
35.059728
 30
0.0
 11
285.922347
 21
34.635995
 31
0.0
  0
LINE
  8
0
  6
BYBLOCK
 62
     0
 10
285.372347
 20
34.650995
 30
0.0
 11
285.222347
 21
34.650995
 31
0.0
  0
LINE
  8
0
  6
BYBLOCK
 62
     0
 10
286.072347
 20
34.650995
 30
0.0
 11
286.222347
 21
34.650995
 31
0.0
  0
SOLID
  8
0
  6
BYBLOCK
 62
     0
 10
285.372347
 20
34.675995
 30
0.0
 11
285.372347
 21
34.625995
 31
0.0
 12
285.522347
 22
34.650995
 32
0.0
 13
285.522347
 23
34.650995
 33
0.0
  0
SOLID
  8
0
  6
BYBLOCK
 62
     0
 10
286.072347
 20
34.675995
 30
0.0
 11
286.072347
 21
34.625995
 31
0.0
 12
285.922347
 22
34.650995
 32
0.0
 13
285.922347
 23
34.650995
 33
0.0
  0
LINE
  8
0
  6
BYBLOCK
 62
     0
 10
285.522347
 20
34.650995
 30
0.0
 11
285.922347
 21
34.650995
 31
0.0
  0
TEXT
  8
0
  6
BYBLOCK
 62
     0
 10
285.597347
 20
34.688495
 30
0.0
 40
0.075
  1
0.40
  7
ROMANC
 72
     1
 11
285.722347
 21
34.725995
 31
0.0
 73
     2
  0
POINT
  8
DEFPOINTS
  6
BYBLOCK
 62
     0
 10
285.522347
 20
35.074728
 30
0.0
  0
POINT
  8
DEFPOINTS
  6
BYBLOCK
 62
     0
 10
285.922347
 20
35.074728
 30
0.0
  0
POINT
  8
DEFPOINTS
  6
BYBLOCK
 62
     0
 10
285.922347
 20
34.650995
 30
0.0
  0
ENDBLK
  8
0
  0
BLOCK
  8
0
  2
*D21
 70
    65
 10
0.0
 20
0.0
 30
0.0
  3
*D
  0
LINE
  8
0
  6
BYBLOCK
 62
     0
 10
285.272347
 20
35.059728
 30
0.0
 11
285.272347
 21
34.355597
 31
0.0
  0
LINE
  8
0
  6
BYBLOCK
 62
     0
 10
286.172347
 20
35.059728
 30
0.0
 11
286.172347
 21
34.355597
 31
0.0
  0
LINE
  8
0
  6
BYBLOCK
 62
     0
 10
285.422347
 20
34.370597
 30
0.0
 11
286.022347
 21
34.370597
 31
0.0
  0
SOLID
  8
0
  6
BYBLOCK
 62
     0
 10
285.422347
 20
34.395597
 30
0.0
 11
285.422347
 21
34.345597
 31
0.0
 12
285.272347
 22
34.370597
 32
0.0
 13
285.272347
 23
34.370597
 33
0.0
  0
SOLID
  8
0
  6
BYBLOCK
 62
     0
 10
286.022347
 20
34.395597
 30
0.0
 11
286.022347
 21
34.345597
 31
0.0
 12
286.172347
 22
34.370597
 32
0.0
 13
286.172347
 23
34.370597
 33
0.0
  0
TEXT
  8
0
  6
BYBLOCK
 62
     0
 10
285.597347
 20
34.408097
 30
0.0
 40
0.075
  1
0.90
  7
ROMANC
 72
     1
 11
285.722347
 21
34.445597
 31
0.0
 73
     2
  0
POINT
  8
DEFPOINTS
  6
BYBLOCK
 62
     0
 10
285.272347
 20
35.074728
 30
0.0
  0
POINT
  8
DEFPOINTS
  6
BYBLOCK
 62
     0
 10
286.172347
 20
35.074728
 30
0.0
  0
POINT
  8
DEFPOINTS
  6
BYBLOCK
 62
     0
 10
286.172347
 20
34.370597
 30
0.0
  0
ENDBLK
  8
0
  0
BLOCK
  8
0
  2
*D22
 70
    65
 10
0.0
 20
0.0
 30
0.0
  3
*D
  0
LINE
  8
0
  6
BYBLOCK
 62
     0
 10
286.222347
 20
35.939728
 30
0.0
 11
286.222347
 21
36.151506
 31
0.0
  0
LINE
  8
0
  6
BYBLOCK
 62
     0
 10
285.222347
 20
35.939728
 30
0.0
 11
285.222347
 21
36.151506
 31
0.0
  0
LINE
  8
0
  6
BYBLOCK
 62
     0
 10
286.072347
 20
36.136506
 30
0.0
 11
285.372347
 21
36.136506
 31
0.0
  0
SOLID
  8
0
  6
BYBLOCK
 62
     0
 10
286.072347
 20
36.161506
 30
0.0
 11
286.072347
 21
36.111506
 31
0.0
 12
286.222347
 22
36.136506
 32
0.0
 13
286.222347
 23
36.136506
 33
0.0
  0
SOLID
  8
0
  6
BYBLOCK
 62
     0
 10
285.372347
 20
36.161506
 30
0.0
 11
285.372347
 21
36.111506
 31
0.0
 12
285.222347
 22
36.136506
 32
0.0
 13
285.222347
 23
36.136506
 33
0.0
  0
TEXT
  8
0
  6
BYBLOCK
 62
     0
 10
285.59199
 20
36.174006
 30
0.0
 40
0.075
  1
1.00
  7
ROMANC
 72
     1
 11
285.722347
 21
36.211506
 31
0.0
 73
     2
  0
POINT
  8
DEFPOINTS
  6
BYBLOCK
 62
     0
 10
286.222347
 20
35.924728
 30
0.0
  0
POINT
  8
DEFPOINTS
  6
BYBLOCK
 62
     0
 10
285.222347
 20
35.924728
 30
0.0
  0
POINT
  8
DEFPOINTS
  6
BYBLOCK
 62
     0
 10
285.222347
 20
36.136506
 30
0.0
  0
ENDBLK
  8
0
  0
BLOCK
  8
0
  2
*D23
 70
    65
 10
0.0
 20
0.0
 30
0.0
  3
*D
  0
LINE
  8
0
  6
BYBLOCK
 62
     0
 10
285.737347
 20
34.924728
 30
0.0
 11
286.521306
 21
34.924728
 31
0.0
  0
LINE
  8
0
  6
BYBLOCK
 62
     0
 10
285.937347
 20
35.074728
 30
0.0
 11
286.521306
 21
35.074728
 31
0.0
  0
LINE
  8
0
  6
BYBLOCK
 62
     0
 10
286.506306
 20
34.774728
 30
0.0
 11
286.506306
 21
34.624728
 31
0.0
  0
LINE
  8
0
  6
BYBLOCK
 62
     0
 10
286.506306
 20
35.224728
 30
0.0
 11
286.506306
 21
35.374728
 31
0.0
  0
SOLID
  8
0
  6
BYBLOCK
 62
     0
 10
286.481306
 20
34.774728
 30
0.0
 11
286.531306
 21
34.774728
 31
0.0
 12
286.506306
 22
34.924728
 32
0.0
 13
286.506306
 23
34.924728
 33
0.0
  0
SOLID
  8
0
  6
BYBLOCK
 62
     0
 10
286.481306
 20
35.224728
 30
0.0
 11
286.531306
 21
35.224728
 31
0.0
 12
286.506306
 22
35.074728
 32
0.0
 13
286.506306
 23
35.074728
 33
0.0
  0
LINE
  8
0
  6
BYBLOCK
 62
     0
 10
286.506306
 20
34.924728
 30
0.0
 11
286.506306
 21
35.074728
 31
0.0
  0
TEXT
  8
0
  6
BYBLOCK
 62
     0
 10
286.468806
 20
34.874728
 30
0.0
 40
0.075
  1
0.15
 50
90.0
  7
ROMANC
 72
     1
 11
286.431306
 21
34.999728
 31
0.0
 73
     2
  0
POINT
  8
DEFPOINTS
  6
BYBLOCK
 62
     0
 10
285.722347
 20
34.924728
 30
0.0
  0
POINT
  8
DEFPOINTS
  6
BYBLOCK
 62
     0
 10
285.922347
 20
35.074728
 30
0.0
  0
POINT
  8
DEFPOINTS
  6
BYBLOCK
 62
     0
 10
286.506306
 20
35.074728
 30
0.0
  0
ENDBLK
  8
0
  0
BLOCK
  8
0
  2
*D24
 70
    65
 10
0.0
 20
0.0
 30
0.0
  3
*D
  0
LINE
  8
0
  6
BYBLOCK
 62
     0
 10
285.737347
 20
34.924728
 30
0.0
 11
286.521306
 21
34.924728
 31
0.0
  0
LINE
  8
0
  6
BYBLOCK
 62
     0
 10
285.937347
 20
35.074728
 30
0.0
 11
286.521306
 21
35.074728
 31
0.0
  0
LINE
  8
0
  6
BYBLOCK
 62
     0
 10
286.506306
 20
34.774728
 30
0.0
 11
286.506306
 21
34.624728
 31
0.0
  0
LINE
  8
0
  6
BYBLOCK
 62
     0
 10
286.506306
 20
35.224728
 30
0.0
 11
286.506306
 21
35.374728
 31
0.0
  0
SOLID
  8
0
  6
BYBLOCK
 62
     0
 10
286.481306
 20
34.774728
 30
0.0
 11
286.531306
 21
34.774728
 31
0.0
 12
286.506306
 22
34.924728
 32
0.0
 13
286.506306
 23
34.924728
 33
0.0
  0
SOLID
  8
0
  6
BYBLOCK
 62
     0
 10
286.481306
 20
35.224728
 30
0.0
 11
286.531306
 21
35.224728
 31
0.0
 12
286.506306
 22
35.074728
 32
0.0
 13
286.506306
 23
35.074728
 33
0.0
  0
LINE
  8
0
  6
BYBLOCK
 62
     0
 10
286.506306
 20
34.924728
 30
0.0
 11
286.506306
 21
35.074728
 31
0.0
  0
TEXT
  8
0
  6
BYBLOCK
 62
     0
 10
286.468806
 20
34.621449
 30
0.0
 40
0.075
  1
0.15
 50
90.0
  7
ROMANC
 72
     1
 11
286.431306
 21
34.746449
 31
0.0
 73
     2
  0
POINT
  8
DEFPOINTS
  6
BYBLOCK
 62
     0
 10
285.722347
 20
34.924728
 30
0.0
  0
POINT
  8
DEFPOINTS
  6
BYBLOCK
 62
     0
 10
285.922347
 20
35.074728
 30
0.0
  0
POINT
  8
DEFPOINTS
  6
BYBLOCK
 62
     0
 10
286.506306
 20
35.074728
 30
0.0
  0
ENDBLK
  8
0
  0
BLOCK
  8
0
  2
*D25
 70
    65
 10
0.0
 20
0.0
 30
0.0
  3
*D
  0
LINE
  8
0
  6
BYBLOCK
 62
     0
 10
286.187347
 20
35.074728
 30
0.0
 11
286.521306
 21
35.074728
 31
0.0
  0
LINE
  8
0
  6
BYBLOCK
 62
     0
 10
286.237347
 20
35.924728
 30
0.0
 11
286.521306
 21
35.924728
 31
0.0
  0
LINE
  8
0
  6
BYBLOCK
 62
     0
 10
286.506306
 20
35.224728
 30
0.0
 11
286.506306
 21
35.774728
 31
0.0
  0
SOLID
  8
0
  6
BYBLOCK
 62
     0
 10
286.481306
 20
35.224728
 30
0.0
 11
286.531306
 21
35.224728
 31
0.0
 12
286.506306
 22
35.074728
 32
0.0
 13
286.506306
 23
35.074728
 33
0.0
  0
SOLID
  8
0
  6
BYBLOCK
 62
     0
 10
286.481306
 20
35.774728
 30
0.0
 11
286.531306
 21
35.774728
 31
0.0
 12
286.506306
 22
35.924728
 32
0.0
 13
286.506306
 23
35.924728
 33
0.0
  0
TEXT
  8
0
  6
BYBLOCK
 62
     0
 10
286.468806
 20
35.374728
 30
0.0
 40
0.075
  1
0.85
 50
90.0
  7
ROMANC
 72
     1
 11
286.431306
 21
35.499728
 31
0.0
 73
     2
  0
POINT
  8
DEFPOINTS
  6
BYBLOCK
 62
     0
 10
286.172347
 20
35.074728
 30
0.0
  0
POINT
  8
DEFPOINTS
  6
BYBLOCK
 62
     0
 10
286.222347
 20
35.924728
 30
0.0
  0
POINT
  8
DEFPOINTS
  6
BYBLOCK
 62
     0
 10
286.506306
 20
35.924728
 30
0.0
  0
ENDBLK
  8
0
  0
BLOCK
  8
0
  2
*D26
 70
    65
 10
0.0
 20
0.0
 30
0.0
  3
*D
  0
LINE
  8
0
  6
BYBLOCK
 62
     0
 10
286.237347
 20
35.924728
 30
0.0
 11
286.813794
 21
35.924728
 31
0.0
  0
LINE
  8
0
  6
BYBLOCK
 62
     0
 10
285.737347
 20
34.924728
 30
0.0
 11
286.813794
 21
34.924728
 31
0.0
  0
LINE
  8
0
  6
BYBLOCK
 62
     0
 10
286.798794
 20
35.774728
 30
0.0
 11
286.798794
 21
35.074728
 31
0.0
  0
SOLID
  8
0
  6
BYBLOCK
 62
     0
 10
286.773794
 20
35.774728
 30
0.0
 11
286.823794
 21
35.774728
 31
0.0
 12
286.798794
 22
35.924728
 32
0.0
 13
286.798794
 23
35.924728
 33
0.0
  0
SOLID
  8
0
  6
BYBLOCK
 62
     0
 10
286.773794
 20
35.074728
 30
0.0
 11
286.823794
 21
35.074728
 31
0.0
 12
286.798794
 22
34.924728
 32
0.0
 13
286.798794
 23
34.924728
 33
0.0
  0
TEXT
  8
0
  6
BYBLOCK
 62
     0
 10
286.761294
 20
35.294371
 30
0.0
 40
0.075
  1
1.00
 50
90.0
  7
ROMANC
 72
     1
 11
286.723794
 21
35.424728
 31
0.0
 73
     2
  0
POINT
  8
DEFPOINTS
  6
BYBLOCK
 62
     0
 10
286.222347
 20
35.924728
 30
0.0
  0
POINT
  8
DEFPOINTS
  6
BYBLOCK
 62
     0
 10
285.722347
 20
34.924728
 30
0.0
  0
POINT
  8
DEFPOINTS
  6
BYBLOCK
 62
     0
 10
286.798794
 20
34.924728
 30
0.0
  0
ENDBLK
  8
0
  0
ENDSEC
  0
SECTION
  2
ENTITIES
  0
LINE
  8
0
 10
291.895795
 20
29.897444
 30
0.0
 11
291.895795
 21
44.747444
 31
0.0
  0
TEXT
  8
0
 10
283.93287
 20
40.56142
 30
0.0
 40
0.3
  1
P = 37.6 dm
  7
ROMANC
  0
LINE
  8
0
 10
281.395795
 20
44.747444
 30
0.0
 11
281.395795
 21
29.897444
 31
0.0
  0
LINE
  8
0
 10
281.395795
 20
29.897444
 30
0.0
 11
291.895795
 21
29.897444
 31
0.0
  0
LINE
  8
0
 10
291.895795
 20
44.747444
 30
0.0
 11
281.395795
 21
44.747444
 31
0.0
  0
TEXT
  8
0
 10
287.167296
 20
41.564915
 30
0.0
 40
0.1
  1
2
  7
ROMANC
  0
TEXT
  8
0
 10
283.925768
 20
41.857589
 30
0.0
 40
0.3
  1
ESCALA  1:50
  7
ROMANC
  0
TEXT
  8
0
 10
283.925768
 20
42.343303
 30
0.0
 40
0.3
  1
TIPUS  NT85B
  7
ROMANC
  0
TEXT
  8
0
 10
283.91635
 20
41.258999
 30
0.0
 40
0.3
  1
S =  85 dm
  7
ROMANC
  0
ARC
  8
0
 10
285.722347
 20
35.190521
 30
0.0
 40
0.279793
 50
252.742061
 51
270.0
  0
ARC
  8
0
 10
285.704688
 20
35.133679
 30
0.0
 40
0.220271
 50
233.130102
 51
252.742061
  0
ARC
  8
0
 10
285.677647
 20
35.097624
 30
0.0
 40
0.175203
 50
208.911201
 51
233.130102
  0
ARC
  8
0
 10
285.63619
 20
35.074728
 30
0.0
 40
0.127843
 50
186.287021
 51
208.911201
  0
LINE
  8
0
 10
285.509116
 20
35.060728
 30
0.0
 11
285.259146
 21
35.060728
 31
0.0
  0
LINE
  8
0
 10
285.259146
 20
35.060728
 30
0.0
 11
285.207499
 21
35.938728
 31
0.0
  0
LINE
  8
0
 10
285.207499
 20
35.938728
 30
0.0
 11
286.237195
 21
35.938728
 31
0.0
  0
LINE
  8
0
 10
286.237195
 20
35.938728
 30
0.0
 11
286.185548
 21
35.060728
 31
0.0
  0
LINE
  8
0
 10
286.185548
 20
35.060728
 30
0.0
 11
285.935578
 21
35.060728
 31
0.0
  0
ARC
  8
0
 10
285.808504
 20
35.074728
 30
0.0
 40
0.127843
 50
331.088799
 51
353.712979
  0
ARC
  8
0
 10
285.767047
 20
35.097624
 30
0.0
 40
0.175203
 50
306.869898
 51
331.088799
  0
ARC
  8
0
 10
285.740006
 20
35.133679
 30
0.0
 40
0.220271
 50
287.257939
 51
306.869898
  0
ARC
  8
0
 10
285.722347
 20
35.190521
 30
0.0
 40
0.279793
 50
270.0
 51
287.257939
  0
ARC
  8
0
 10
285.722347
 20
35.190521
 30
0.0
 40
0.272793
 50
252.742061
 51
270.0
  0
ARC
  8
0
 10
285.704688
 20
35.133679
 30
0.0
 40
0.213271
 50
233.130102
 51
252.742061
  0
ARC
  8
0
 10
285.677647
 20
35.097624
 30
0.0
 40
0.168203
 50
208.911201
 51
233.130102
  0
ARC
  8
0
 10
285.63619
 20
35.074728
 30
0.0
 40
0.120843
 50
183.320792
 51
208.911201
  0
LINE
  8
0
 10
285.51555
 20
35.067728
 30
0.0
 11
285.265747
 21
35.067728
 31
0.0
  0
LINE
  8
0
 10
285.265747
 20
35.067728
 30
0.0
 11
285.214923
 21
35.931728
 31
0.0
  0
LINE
  8
0
 10
285.214923
 20
35.931728
 30
0.0
 11
286.229771
 21
35.931728
 31
0.0
  0
LINE
  8
0
 10
286.229771
 20
35.931728
 30
0.0
 11
286.178947
 21
35.067728
 31
0.0
  0
LINE
  8
0
 10
286.178947
 20
35.067728
 30
0.0
 11
285.929144
 21
35.067728
 31
0.0
  0
ARC
  8
0
 10
285.808504
 20
35.074728
 30
0.0
 40
0.120843
 50
331.088799
 51
356.679208
  0
ARC
  8
0
 10
285.767047
 20
35.097624
 30
0.0
 40
0.168203
 50
306.869898
 51
331.088799
  0
ARC
  8
0
 10
285.740006
 20
35.133679
 30
0.0
 40
0.213271
 50
287.257939
 51
306.869898
  0
ARC
  8
0
 10
285.722347
 20
35.190521
 30
0.0
 40
0.272793
 50
270.0
 51
287.257939
  0
LINE
  8
0
  6
BYBLOCK
 62
     0
 10
286.237347
 20
35.924728
 30
0.0
 11
286.813794
 21
35.924728
 31
0.0
  0
LINE
  8
0
  6
BYBLOCK
 62
     0
 10
285.737347
 20
34.924728
 30
0.0
 11
286.813794
 21
34.924728
 31
0.0
  0
LINE
  8
0
  6
BYBLOCK
 62
     0
 10
286.798794
 20
35.774728
 30
0.0
 11
286.798794
 21
35.074728
 31
0.0
  0
SOLID
  8
0
  6
BYBLOCK
 62
     0
 10
286.773794
 20
35.774728
 30
0.0
 11
286.823794
 21
35.774728
 31
0.0
 12
286.798794
 22
35.924728
 32
0.0
 13
286.798794
 23
35.924728
 33
0.0
  0
SOLID
  8
0
  6
BYBLOCK
 62
     0
 10
286.773794
 20
35.074728
 30
0.0
 11
286.823794
 21
35.074728
 31
0.0
 12
286.798794
 22
34.924728
 32
0.0
 13
286.798794
 23
34.924728
 33
0.0
  0
TEXT
  8
0
  6
BYBLOCK
 62
     0
 10
286.761294
 20
35.294371
 30
0.0
 40
0.075
  1
1.00
 50
90.0
  7
ROMANC
 72
     1
 11
286.723794
 21
35.424728
 31
0.0
 73
     2
  0
POINT
  8
DEFPOINTS
  6
BYBLOCK
 62
     0
 10
286.222347
 20
35.924728
 30
0.0
  0
POINT
  8
DEFPOINTS
  6
BYBLOCK
 62
     0
 10
285.722347
 20
34.924728
 30
0.0
  0
POINT
  8
DEFPOINTS
  6
BYBLOCK
 62
     0
 10
286.798794
 20
34.924728
 30
0.0
  0
LINE
  8
0
  6
BYBLOCK
 62
     0
 10
286.187347
 20
35.074728
 30
0.0
 11
286.521306
 21
35.074728
 31
0.0
  0
LINE
  8
0
  6
BYBLOCK
 62
     0
 10
286.237347
 20
35.924728
 30
0.0
 11
286.521306
 21
35.924728
 31
0.0
  0
LINE
  8
0
  6
BYBLOCK
 62
     0
 10
286.506306
 20
35.224728
 30
0.0
 11
286.506306
 21
35.774728
 31
0.0
  0
SOLID
  8
0
  6
BYBLOCK
 62
     0
 10
286.481306
 20
35.224728
 30
0.0
 11
286.531306
 21
35.224728
 31
0.0
 12
286.506306
 22
35.074728
 32
0.0
 13
286.506306
 23
35.074728
 33
0.0
  0
SOLID
  8
0
  6
BYBLOCK
 62
     0
 10
286.481306
 20
35.774728
 30
0.0
 11
286.531306
 21
35.774728
 31
0.0
 12
286.506306
 22
35.924728
 32
0.0
 13
286.506306
 23
35.924728
 33
0.0
  0
TEXT
  8
0
  6
BYBLOCK
 62
     0
 10
286.468806
 20
35.374728
 30
0.0
 40
0.075
  1
0.85
 50
90.0
  7
ROMANC
 72
     1
 11
286.431306
 21
35.499728
 31
0.0
 73
     2
  0
POINT
  8
DEFPOINTS
  6
BYBLOCK
 62
     0
 10
286.172347
 20
35.074728
 30
0.0
  0
POINT
  8
DEFPOINTS
  6
BYBLOCK
 62
     0
 10
286.222347
 20
35.924728
 30
0.0
  0
POINT
  8
DEFPOINTS
  6
BYBLOCK
 62
     0
 10
286.506306
 20
35.924728
 30
0.0
  0
LINE
  8
0
  6
BYBLOCK
 62
     0
 10
285.737347
 20
34.924728
 30
0.0
 11
286.521306
 21
34.924728
 31
0.0
  0
LINE
  8
0
  6
BYBLOCK
 62
     0
 10
285.937347
 20
35.074728
 30
0.0
 11
286.521306
 21
35.074728
 31
0.0
  0
LINE
  8
0
  6
BYBLOCK
 62
     0
 10
286.506306
 20
34.774728
 30
0.0
 11
286.506306
 21
34.624728
 31
0.0
  0
LINE
  8
0
  6
BYBLOCK
 62
     0
 10
286.506306
 20
35.224728
 30
0.0
 11
286.506306
 21
35.374728
 31
0.0
  0
SOLID
  8
0
  6
BYBLOCK
 62
     0
 10
286.481306
 20
34.774728
 30
0.0
 11
286.531306
 21
34.774728
 31
0.0
 12
286.506306
 22
34.924728
 32
0.0
 13
286.506306
 23
34.924728
 33
0.0
  0
SOLID
  8
0
  6
BYBLOCK
 62
     0
 10
286.481306
 20
35.224728
 30
0.0
 11
286.531306
 21
35.224728
 31
0.0
 12
286.506306
 22
35.074728
 32
0.0
 13
286.506306
 23
35.074728
 33
0.0
  0
LINE
  8
0
  6
BYBLOCK
 62
     0
 10
286.506306
 20
34.924728
 30
0.0
 11
286.506306
 21
35.074728
 31
0.0
  0
TEXT
  8
0
  6
BYBLOCK
 62
     0
 10
286.468806
 20
34.621449
 30
0.0
 40
0.075
  1
0.15
 50
90.0
  7
ROMANC
 72
     1
 11
286.431306
 21
34.746449
 31
0.0
 73
     2
  0
POINT
  8
DEFPOINTS
  6
BYBLOCK
 62
     0
 10
285.722347
 20
34.924728
 30
0.0
  0
POINT
  8
DEFPOINTS
  6
BYBLOCK
 62
     0
 10
285.922347
 20
35.074728
 30
0.0
  0
POINT
  8
DEFPOINTS
  6
BYBLOCK
 62
     0
 10
286.506306
 20
35.074728
 30
0.0
  0
LINE
  8
0
  6
BYBLOCK
 62
     0
 10
286.222347
 20
35.939728
 30
0.0
 11
286.222347
 21
36.151506
 31
0.0
  0
LINE
  8
0
  6
BYBLOCK
 62
     0
 10
285.222347
 20
35.939728
 30
0.0
 11
285.222347
 21
36.151506
 31
0.0
  0
LINE
  8
0
  6
BYBLOCK
 62
     0
 10
286.072347
 20
36.136506
 30
0.0
 11
285.372347
 21
36.136506
 31
0.0
  0
SOLID
  8
0
  6
BYBLOCK
 62
     0
 10
286.072347
 20
36.161506
 30
0.0
 11
286.072347
 21
36.111506
 31
0.0
 12
286.222347
 22
36.136506
 32
0.0
 13
286.222347
 23
36.136506
 33
0.0
  0
SOLID
  8
0
  6
BYBLOCK
 62
     0
 10
285.372347
 20
36.161506
 30
0.0
 11
285.372347
 21
36.111506
 31
0.0
 12
285.222347
 22
36.136506
 32
0.0
 13
285.222347
 23
36.136506
 33
0.0
  0
TEXT
  8
0
  6
BYBLOCK
 62
     0
 10
285.59199
 20
36.174006
 30
0.0
 40
0.075
  1
1.00
  7
ROMANC
 72
     1
 11
285.722347
 21
36.211506
 31
0.0
 73
     2
  0
POINT
  8
DEFPOINTS
  6
BYBLOCK
 62
     0
 10
286.222347
 20
35.924728
 30
0.0
  0
POINT
  8
DEFPOINTS
  6
BYBLOCK
 62
     0
 10
285.222347
 20
35.924728
 30
0.0
  0
POINT
  8
DEFPOINTS
  6
BYBLOCK
 62
     0
 10
285.222347
 20
36.136506
 30
0.0
  0
LINE
  8
0
  6
BYBLOCK
 62
     0
 10
285.272347
 20
35.059728
 30
0.0
 11
285.272347
 21
34.355597
 31
0.0
  0
LINE
  8
0
  6
BYBLOCK
 62
     0
 10
286.172347
 20
35.059728
 30
0.0
 11
286.172347
 21
34.355597
 31
0.0
  0
LINE
  8
0
  6
BYBLOCK
 62
     0
 10
285.422347
 20
34.370597
 30
0.0
 11
286.022347
 21
34.370597
 31
0.0
  0
SOLID
  8
0
  6
BYBLOCK
 62
     0
 10
285.422347
 20
34.395597
 30
0.0
 11
285.422347
 21
34.345597
 31
0.0
 12
285.272347
 22
34.370597
 32
0.0
 13
285.272347
 23
34.370597
 33
0.0
  0
SOLID
  8
0
  6
BYBLOCK
 62
     0
 10
286.022347
 20
34.395597
 30
0.0
 11
286.022347
 21
34.345597
 31
0.0
 12
286.172347
 22
34.370597
 32
0.0
 13
286.172347
 23
34.370597
 33
0.0
  0
TEXT
  8
0
  6
BYBLOCK
 62
     0
 10
285.597347
 20
34.408097
 30
0.0
 40
0.075
  1
0.90
  7
ROMANC
 72
     1
 11
285.722347
 21
34.445597
 31
0.0
 73
     2
  0
POINT
  8
DEFPOINTS
  6
BYBLOCK
 62
     0
 10
285.272347
 20
35.074728
 30
0.0
  0
POINT
  8
DEFPOINTS
  6
BYBLOCK
 62
     0
 10
286.172347
 20
35.074728
 30
0.0
  0
POINT
  8
DEFPOINTS
  6
BYBLOCK
 62
     0
 10
286.172347
 20
34.370597
 30
0.0
  0
LINE
  8
0
  6
BYBLOCK
 62
     0
 10
285.522347
 20
35.059728
 30
0.0
 11
285.522347
 21
34.635995
 31
0.0
  0
LINE
  8
0
  6
BYBLOCK
 62
     0
 10
285.922347
 20
35.059728
 30
0.0
 11
285.922347
 21
34.635995
 31
0.0
  0
LINE
  8
0
  6
BYBLOCK
 62
     0
 10
285.372347
 20
34.650995
 30
0.0
 11
285.222347
 21
34.650995
 31
0.0
  0
LINE
  8
0
  6
BYBLOCK
 62
     0
 10
286.072347
 20
34.650995
 30
0.0
 11
286.222347
 21
34.650995
 31
0.0
  0
SOLID
  8
0
  6
BYBLOCK
 62
     0
 10
285.372347
 20
34.675995
 30
0.0
 11
285.372347
 21
34.625995
 31
0.0
 12
285.522347
 22
34.650995
 32
0.0
 13
285.522347
 23
34.650995
 33
0.0
  0
SOLID
  8
0
  6
BYBLOCK
 62
     0
 10
286.072347
 20
34.675995
 30
0.0
 11
286.072347
 21
34.625995
 31
0.0
 12
285.922347
 22
34.650995
 32
0.0
 13
285.922347
 23
34.650995
 33
0.0
  0
LINE
  8
0
  6
BYBLOCK
 62
     0
 10
285.522347
 20
34.650995
 30
0.0
 11
285.922347
 21
34.650995
 31
0.0
  0
TEXT
  8
0
  6
BYBLOCK
 62
     0
 10
285.597347
 20
34.688495
 30
0.0
 40
0.075
  1
0.40
  7
ROMANC
 72
     1
 11
285.722347
 21
34.725995
 31
0.0
 73
     2
  0
POINT
  8
DEFPOINTS
  6
BYBLOCK
 62
     0
 10
285.522347
 20
35.074728
 30
0.0
  0
POINT
  8
DEFPOINTS
  6
BYBLOCK
 62
     0
 10
285.922347
 20
35.074728
 30
0.0
  0
POINT
  8
DEFPOINTS
  6
BYBLOCK
 62
     0
 10
285.922347
 20
34.650995
 30
0.0
  0
ARC
  8
0
 10
285.722347
 20
35.190521
 30
0.0
 40
0.265793
 50
252.742061
 51
270.0
  0
ARC
  8
0
 10
285.704688
 20
35.133679
 30
0.0
 40
0.206271
 50
233.130102
 51
252.742061
  0
ARC
  8
0
 10
285.677647
 20
35.097624
 30
0.0
 40
0.161203
 50
208.911201
 51
233.130102
  0
ARC
  8
0
 10
285.63619
 20
35.074728
 30
0.0
 40
0.113843
 50
180.0
 51
208.911201
  0
LINE
  8
0
 10
285.522347
 20
35.074728
 30
0.0
 11
285.272347
 21
35.074728
 31
0.0
  0
LINE
  8
0
 10
285.272347
 20
35.074728
 30
0.0
 11
285.222347
 21
35.924728
 31
0.0
  0
LINE
  8
0
 10
285.222347
 20
35.924728
 30
0.0
 11
286.222347
 21
35.924728
 31
0.0
  0
LINE
  8
0
 10
286.222347
 20
35.924728
 30
0.0
 11
286.172347
 21
35.074728
 31
0.0
  0
LINE
  8
0
 10
286.172347
 20
35.074728
 30
0.0
 11
285.922347
 21
35.074728
 31
0.0
  0
ARC
  8
0
 10
285.808504
 20
35.074728
 30
0.0
 40
0.113843
 50
331.088799
 51
0.0
  0
ARC
  8
0
 10
285.767047
 20
35.097624
 30
0.0
 40
0.161203
 50
306.869898
 51
331.088799
  0
ARC
  8
0
 10
285.740006
 20
35.133679
 30
0.0
 40
0.206271
 50
287.257939
 51
306.869898
  0
ARC
  8
0
 10
285.722347
 20
35.190521
 30
0.0
 40
0.265793
 50
270.0
 51
287.257939
  0
ENDSEC
  0
EOF
