  0
SECTION
  2
HEADER
  9
$ACADVER
  1
AC1009
  9
$INSBASE
 10
135.256635
 20
199.269792
 30
0.0
  9
$EXTMIN
 10
135.256635
 20
199.269792
 30
0.0
  9
$EXTMAX
 10
145.756635
 20
214.119792
 30
0.0
  9
$LIMMIN
 10
0.0
 20
0.0
  9
$LIMMAX
 10
410.0
 20
287.0
  9
$ORTHOMODE
 70
     1
  9
$REGENMODE
 70
     1
  9
$FILLMODE
 70
     1
  9
$QTEXTMODE
 70
     0
  9
$MIRRTEXT
 70
     1
  9
$DRAGMODE
 70
     2
  9
$LTSCALE
 40
25.0
  9
$OSMODE
 70
    32
  9
$ATTMODE
 70
     1
  9
$TEXTSIZE
 40
0.1
  9
$TRACEWID
 40
0.3
  9
$TEXTSTYLE
  7
STANDARD
  9
$CLAYER
  8
0
  9
$CELTYPE
  6
BYLAYER
  9
$CECOLOR
 62
   256
  9
$DIMSCALE
 40
1.0
  9
$DIMASZ
 40
3.5
  9
$DIMEXO
 40
0.1
  9
$DIMDLI
 40
7.0
  9
$DIMRND
 40
0.0
  9
$DIMDLE
 40
0.0
  9
$DIMEXE
 40
1.8
  9
$DIMTP
 40
0.0
  9
$DIMTM
 40
0.0
  9
$DIMTXT
 40
3.5
  9
$DIMCEN
 40
1.5
  9
$DIMTSZ
 40
0.0
  9
$DIMTOL
 70
     0
  9
$DIMLIM
 70
     0
  9
$DIMTIH
 70
     0
  9
$DIMTOH
 70
     0
  9
$DIMSE1
 70
     0
  9
$DIMSE2
 70
     0
  9
$DIMTAD
 70
     0
  9
$DIMZIN
 70
     0
  9
$DIMBLK
  1

  9
$DIMASO
 70
     1
  9
$DIMSHO
 70
     0
  9
$DIMPOST
  1

  9
$DIMAPOST
  1

  9
$DIMALT
 70
     0
  9
$DIMALTD
 70
     2
  9
$DIMALTF
 40
25.4
  9
$DIMLFAC
 40
1.0
  9
$DIMTOFL
 70
     0
  9
$DIMTVP
 40
0.0
  9
$DIMTIX
 70
     0
  9
$DIMSOXD
 70
     0
  9
$DIMSAH
 70
     0
  9
$DIMBLK1
  1

  9
$DIMBLK2
  1

  9
$DIMSTYLE
  2
*UNNAMED
  9
$DIMCLRD
 70
     0
  9
$DIMCLRE
 70
     0
  9
$DIMCLRT
 70
     0
  9
$DIMTFAC
 40
1.0
  9
$DIMGAP
 40
0.09
  9
$LUNITS
 70
     2
  9
$LUPREC
 70
     2
  9
$SKETCHINC
 40
1.0
  9
$FILLETRAD
 40
0.0
  9
$AUNITS
 70
     0
  9
$AUPREC
 70
     0
  9
$MENU
  1
acad
  9
$ELEVATION
 40
0.0
  9
$PELEVATION
 40
0.0
  9
$THICKNESS
 40
0.0
  9
$LIMCHECK
 70
     0
  9
$BLIPMODE
 70
     0
  9
$CHAMFERA
 40
0.0
  9
$CHAMFERB
 40
0.0
  9
$SKPOLY
 70
     0
  9
$TDCREATE
 40
2449960.565639698
  9
$TDUPDATE
 40
2450722.742193402
  9
$TDINDWG
 40
0.0027462963
  9
$TDUSRTIMER
 40
0.0027462963
  9
$USRTIMER
 70
     1
  9
$ANGBASE
 50
0.0
  9
$ANGDIR
 70
     0
  9
$PDMODE
 70
     0
  9
$PDSIZE
 40
0.0
  9
$PLINEWID
 40
0.0
  9
$COORDS
 70
     2
  9
$SPLFRAME
 70
     0
  9
$SPLINETYPE
 70
     6
  9
$SPLINESEGS
 70
     8
  9
$ATTDIA
 70
     0
  9
$ATTREQ
 70
     1
  9
$HANDLING
 70
     0
  9
$HANDSEED
  5
0
  9
$SURFTAB1
 70
     6
  9
$SURFTAB2
 70
     6
  9
$SURFTYPE
 70
     6
  9
$SURFU
 70
     6
  9
$SURFV
 70
     6
  9
$UCSNAME
  2

  9
$UCSORG
 10
0.0
 20
0.0
 30
0.0
  9
$UCSXDIR
 10
1.0
 20
0.0
 30
0.0
  9
$UCSYDIR
 10
0.0
 20
1.0
 30
0.0
  9
$PUCSNAME
  2

  9
$PUCSORG
 10
0.0
 20
0.0
 30
0.0
  9
$PUCSXDIR
 10
1.0
 20
0.0
 30
0.0
  9
$PUCSYDIR
 10
0.0
 20
1.0
 30
0.0
  9
$USERI1
 70
     0
  9
$USERI2
 70
     0
  9
$USERI3
 70
     0
  9
$USERI4
 70
     0
  9
$USERI5
 70
     0
  9
$USERR1
 40
0.0
  9
$USERR2
 40
0.0
  9
$USERR3
 40
0.0
  9
$USERR4
 40
0.0
  9
$USERR5
 40
0.0
  9
$WORLDVIEW
 70
     1
  9
$SHADEDGE
 70
     3
  9
$SHADEDIF
 70
    70
  9
$TILEMODE
 70
     1
  9
$MAXACTVP
 70
    16
  9
$PINSBASE
 10
0.0
 20
0.0
 30
0.0
  9
$PLIMCHECK
 70
     0
  9
$PEXTMIN
 10
1.000000E+20
 20
1.000000E+20
 30
1.000000E+20
  9
$PEXTMAX
 10
-1.000000E+20
 20
-1.000000E+20
 30
-1.000000E+20
  9
$PLIMMIN
 10
0.0
 20
0.0
  9
$PLIMMAX
 10
12.0
 20
9.0
  9
$UNITMODE
 70
     0
  9
$VISRETAIN
 70
     0
  9
$PLINEGEN
 70
     0
  9
$PSLTSCALE
 70
     0
  9
$TREEDEPTH
 70
  3020
  9
$DWGCODEPAGE
  3
iso8859-1
  0
ENDSEC
  0
SECTION
  2
TABLES
  0
TABLE
  2
VPORT
 70
     1
  0
VPORT
  2
*ACTIVE
 70
     0
 10
0.0
 20
0.0
 11
1.0
 21
1.0
 12
147.218485
 22
206.694792
 13
0.0
 23
0.0
 14
1.0
 24
1.0
 15
10.0
 25
10.0
 16
0.0
 26
0.0
 36
1.0
 17
0.0
 27
0.0
 37
0.0
 40
14.85
 41
1.611024
 42
50.0
 43
0.0
 44
0.0
 50
0.0
 51
0.0
 71
     0
 72
   100
 73
     1
 74
     0
 75
     0
 76
     0
 77
     0
 78
     0
  0
ENDTAB
  0
TABLE
  2
LTYPE
 70
     1
  0
LTYPE
  2
CONTINUOUS
 70
    64
  3
Solid Line
 72
    65
 73
     0
 40
0.0
  0
ENDTAB
  0
TABLE
  2
LAYER
 70
     5
  0
LAYER
  2
0
 70
    64
 62
     7
  6
CONTINUOUS
  0
LAYER
  2
SECCIO
 70
    64
 62
     7
  6
CONTINUOUS
  0
LAYER
  2
MESURA
 70
    64
 62
     7
  6
CONTINUOUS
  0
LAYER
  2
TEXTEP
 70
    64
 62
     7
  6
CONTINUOUS
  0
LAYER
  2
TEXTEG
 70
    64
 62
     7
  6
CONTINUOUS
  0
ENDTAB
  0
TABLE
  2
STYLE
 70
     2
  0
STYLE
  2
STANDARD
 70
    64
 40
0.0
 41
1.0
 50
0.0
 71
     0
 42
0.1
  3
txt
  4

  0
STYLE
  2
ROMANC
 70
    64
 40
0.0
 41
1.0
 50
0.0
 71
     0
 42
0.1
  3
romanc
  4

  0
ENDTAB
  0
TABLE
  2
VIEW
 70
     0
  0
ENDTAB
  0
TABLE
  2
UCS
 70
     0
  0
ENDTAB
  0
TABLE
  2
APPID
 70
     1
  0
APPID
  2
ACAD
 70
    64
  0
ENDTAB
  0
TABLE
  2
DIMSTYLE
 70
     0
  0
ENDTAB
  0
ENDSEC
  0
SECTION
  2
BLOCKS
  0
ENDSEC
  0
SECTION
  2
ENTITIES
  0
TEXT
  8
0
 10
136.815519
 20
210.407297
 30
0.0
 40
0.3
  1
P = 125.7 dm
  7
ROMANC
  0
TEXT
  8
0
 10
136.818347
 20
211.080796
 30
0.0
 40
0.3
  1
S = 849  dm
  7
ROMANC
  0
LINE
  8
MESURA
 10
138.270594
 20
204.030959
 30
0.0
 11
138.239126
 21
203.994648
 31
0.0
  0
LINE
  8
MESURA
 10
138.270594
 20
204.530959
 30
0.0
 11
137.370594
 21
204.530959
 31
0.0
  0
LINE
  8
0
 10
135.256635
 20
214.119792
 30
0.0
 11
145.756635
 21
214.119792
 31
0.0
  0
LINE
  8
0
 10
135.256635
 20
199.269792
 30
0.0
 11
145.756635
 21
199.269792
 31
0.0
  0
LINE
  8
MESURA
 10
137.370594
 20
204.030959
 30
0.0
 11
141.870594
 21
204.030959
 31
0.0
  0
LINE
  8
0
 10
135.256635
 20
214.119792
 30
0.0
 11
135.256635
 21
199.269792
 31
0.0
  0
LINE
  8
MESURA
 10
136.94559
 20
204.967425
 30
0.0
 11
136.94559
 21
204.501659
 31
0.0
  0
LINE
  8
MESURA
 10
137.370594
 20
204.930959
 30
0.0
 11
137.370594
 21
203.291832
 31
0.0
  0
TEXT
  8
MESURA
 10
136.679266
 20
204.692956
 30
0.0
 40
0.1
  1
0.4
  0
TEXT
  8
MESURA
 10
137.702951
 20
203.844595
 30
0.0
 40
0.1
  1
0.9
  0
LINE
  8
0
 10
136.987175
 20
204.575205
 30
0.0
 11
136.94559
 21
204.530959
 31
0.0
  0
LINE
  8
MESURA
 10
136.94559
 20
204.530959
 30
0.0
 11
136.914123
 21
204.494648
 31
0.0
  0
LINE
  8
MESURA
 10
137.370594
 20
204.530959
 30
0.0
 11
136.895654
 21
204.530959
 31
0.0
  0
LINE
  8
0
 10
137.412178
 20
204.075205
 30
0.0
 11
137.370594
 21
204.030959
 31
0.0
  0
LINE
  8
MESURA
 10
137.370594
 20
204.030959
 30
0.0
 11
137.339126
 21
203.994648
 31
0.0
  0
LINE
  8
MESURA
 10
136.94559
 20
204.930959
 30
0.0
 11
136.914123
 21
204.894648
 31
0.0
  0
LINE
  8
0
 10
136.987175
 20
204.975205
 30
0.0
 11
136.94559
 21
204.930959
 31
0.0
  0
LINE
  8
MESURA
 10
137.370594
 20
204.930959
 30
0.0
 11
136.895654
 21
204.930959
 31
0.0
  0
LINE
  8
0
 10
145.756635
 20
214.119792
 30
0.0
 11
145.756635
 21
199.269792
 31
0.0
  0
LINE
  8
MESURA
 10
142.370594
 20
206.579064
 30
0.0
 11
142.370594
 21
204.530959
 31
0.0
  0
LINE
  8
MESURA
 10
141.870594
 20
204.530959
 30
0.0
 11
142.931102
 21
204.530959
 31
0.0
  0
LINE
  8
0
 10
138.312178
 20
204.075205
 30
0.0
 11
138.270594
 21
204.030959
 31
0.0
  0
LINE
  8
MESURA
 10
138.270594
 20
204.530959
 30
0.0
 11
138.270594
 21
203.963903
 31
0.0
  0
LINE
  8
MESURA
 10
141.870594
 20
204.530959
 30
0.0
 11
141.870594
 21
203.291832
 31
0.0
  0
LINE
  8
0
 10
141.908633
 20
204.074685
 30
0.0
 11
141.870594
 21
204.030959
 31
0.0
  0
LINE
  8
MESURA
 10
141.870594
 20
204.030959
 30
0.0
 11
141.827806
 21
203.991666
 31
0.0
  0
TEXT
  8
TEXTEP
 10
139.798907
 20
203.861293
 30
0.0
 40
0.1
  1
3.6
  0
LINE
  8
MESURA
 10
142.334382
 20
204.503406
 30
0.0
 11
142.417772
 21
204.564016
 31
0.0
  0
LINE
  8
MESURA
 10
141.870594
 20
206.230959
 30
0.0
 11
142.470594
 21
206.230959
 31
0.0
  0
LINE
  8
MESURA
 10
141.386516
 20
206.530959
 30
0.0
 11
142.931102
 21
206.530959
 31
0.0
  0
LINE
  8
MESURA
 10
141.873621
 20
206.238402
 30
0.0
 11
141.873621
 21
206.880959
 31
0.0
  0
LINE
  8
MESURA
 10
141.83293
 20
206.80024
 30
0.0
 11
141.91632
 21
206.86085
 31
0.0
  0
LINE
  8
MESURA
 10
141.343651
 20
206.80024
 30
0.0
 11
141.427041
 21
206.86085
 31
0.0
  0
TEXT
  8
TEXTEP
 10
141.530101
 20
206.887921
 30
0.0
 40
0.1
  1
0.5
 50
0.5
  0
LINE
  8
MESURA
 10
141.366516
 20
206.830959
 30
0.0
 11
141.952625
 21
206.830959
 31
0.0
  0
LINE
  8
MESURA
 10
141.385665
 20
206.521916
 30
0.0
 11
141.386654
 21
206.880959
 31
0.0
  0
LINE
  8
MESURA
 10
142.330876
 20
206.200034
 30
0.0
 11
142.414266
 21
206.260644
 31
0.0
  0
TEXT
  8
TEXTEP
 10
142.419321
 20
206.326118
 30
0.0
 40
0.1
  1
0.3
  0
LINE
  8
MESURA
 10
142.329196
 20
206.500552
 30
0.0
 11
142.412586
 21
206.561161
 31
0.0
  0
TEXT
  8
TEXTEP
 10
142.434071
 20
205.40187
 30
0.0
 40
0.1
  1
1.7
  0
TEXT
  8
0
 10
140.326179
 20
211.386712
 30
0.0
 40
0.1
  1
2
  7
ROMANC
  0
LINE
  8
0
 10
137.370594
 20
203.291832
 30
0.0
 11
141.870594
 21
203.291832
 31
0.0
  0
LINE
  8
0
 10
142.931102
 20
206.530959
 30
0.0
 11
142.931102
 21
204.530959
 31
0.0
  0
LINE
  8
0
 10
137.412178
 20
203.336078
 30
0.0
 11
137.370594
 21
203.291832
 31
0.0
  0
LINE
  8
MESURA
 10
137.370594
 20
203.291832
 30
0.0
 11
137.339126
 21
203.255522
 31
0.0
  0
LINE
  8
0
 10
141.908633
 20
203.335558
 30
0.0
 11
141.870594
 21
203.291832
 31
0.0
  0
LINE
  8
MESURA
 10
141.870594
 20
203.291832
 30
0.0
 11
141.827806
 21
203.252539
 31
0.0
  0
LINE
  8
MESURA
 10
142.89489
 20
204.503724
 30
0.0
 11
142.97828
 21
204.564334
 31
0.0
  0
LINE
  8
MESURA
 10
142.889704
 20
206.50087
 30
0.0
 11
142.973094
 21
206.56148
 31
0.0
  0
TEXT
  8
TEXTEP
 10
143.112479
 20
205.40187
 30
0.0
 40
0.1
  1
2.0
  0
TEXT
  8
TEXTEP
 10
139.798907
 20
203.022709
 30
0.0
 40
0.1
  1
4.5
  0
LINE
  8
SECCIO
 10
141.860594
 20
204.540959
 30
0.0
 11
138.280594
 21
204.540959
 31
0.0
  0
LINE
  8
SECCIO
 10
138.280594
 20
204.540959
 30
0.0
 11
138.280594
 21
204.940959
 31
0.0
  0
LINE
  8
SECCIO
 10
138.280594
 20
204.940959
 30
0.0
 11
137.380594
 21
204.940959
 31
0.0
  0
LINE
  8
SECCIO
 10
137.380594
 20
204.940959
 30
0.0
 11
137.380594
 21
206.225297
 31
0.0
  0
LINE
  8
SECCIO
 10
137.380594
 20
206.225297
 30
0.0
 11
137.873363
 21
206.520959
 31
0.0
  0
LINE
  8
SECCIO
 10
137.873363
 20
206.520959
 30
0.0
 11
141.367824
 21
206.520959
 31
0.0
  0
LINE
  8
SECCIO
 10
141.367824
 20
206.520959
 30
0.0
 11
141.860594
 21
206.225297
 31
0.0
  0
LINE
  8
SECCIO
 10
141.860594
 20
206.225297
 30
0.0
 11
141.860594
 21
204.540959
 31
0.0
  0
LINE
  8
SECCIO
 10
141.880594
 20
204.520959
 30
0.0
 11
138.260594
 21
204.520959
 31
0.0
  0
LINE
  8
SECCIO
 10
138.260594
 20
204.520959
 30
0.0
 11
138.260594
 21
204.920959
 31
0.0
  0
LINE
  8
SECCIO
 10
138.260594
 20
204.920959
 30
0.0
 11
137.360594
 21
204.920959
 31
0.0
  0
LINE
  8
SECCIO
 10
137.360594
 20
204.920959
 30
0.0
 11
137.360594
 21
206.236621
 31
0.0
  0
LINE
  8
SECCIO
 10
137.360594
 20
206.236621
 30
0.0
 11
137.867824
 21
206.540959
 31
0.0
  0
LINE
  8
SECCIO
 10
137.867824
 20
206.540959
 30
0.0
 11
141.373363
 21
206.540959
 31
0.0
  0
LINE
  8
SECCIO
 10
141.373363
 20
206.540959
 30
0.0
 11
141.880594
 21
206.236621
 31
0.0
  0
LINE
  8
SECCIO
 10
141.880594
 20
206.236621
 30
0.0
 11
141.880594
 21
204.520959
 31
0.0
  0
LINE
  8
SECCIO
 10
141.870594
 20
204.530959
 30
0.0
 11
138.270594
 21
204.530959
 31
0.0
  0
LINE
  8
SECCIO
 10
138.270594
 20
204.530959
 30
0.0
 11
138.270594
 21
204.930959
 31
0.0
  0
LINE
  8
SECCIO
 10
138.270594
 20
204.930959
 30
0.0
 11
137.370594
 21
204.930959
 31
0.0
  0
LINE
  8
SECCIO
 10
137.370594
 20
204.930959
 30
0.0
 11
137.370594
 21
206.230959
 31
0.0
  0
LINE
  8
SECCIO
 10
137.370594
 20
206.230959
 30
0.0
 11
137.870594
 21
206.530959
 31
0.0
  0
LINE
  8
SECCIO
 10
137.870594
 20
206.530959
 30
0.0
 11
141.370594
 21
206.530959
 31
0.0
  0
LINE
  8
SECCIO
 10
141.370594
 20
206.530959
 30
0.0
 11
141.870594
 21
206.230959
 31
0.0
  0
LINE
  8
SECCIO
 10
141.870594
 20
206.230959
 30
0.0
 11
141.870594
 21
204.530959
 31
0.0
  0
TEXT
  8
0
 10
136.818347
 20
212.411692
 30
0.0
 40
0.3
  1
TIPUS    NT849
  7
ROMANC
  0
TEXT
  8
0
 10
136.815519
 20
211.738194
 30
0.0
 40
0.3
  1
ESCALA    1:50
  7
ROMANC
  0
ENDSEC
  0
EOF
