  0
SECTION
  2
HEADER
  9
$ACADVER
  1
AC1009
  9
$INSBASE
 10
0.0
 20
0.0
 30
0.0
  9
$EXTMIN
 10
318.829805
 20
29.85788
 30
-0.001526
  9
$EXTMAX
 10
329.371339
 20
44.72551
 30
0.0
  9
$LIMMIN
 10
0.0
 20
0.0
  9
$LIMMAX
 10
410.0
 20
287.0
  9
$ORTHOMODE
 70
     1
  9
$REGENMODE
 70
     1
  9
$FILLMODE
 70
     1
  9
$QTEXTMODE
 70
     0
  9
$MIRRTEXT
 70
     1
  9
$DRAGMODE
 70
     2
  9
$LTSCALE
 40
25.0
  9
$OSMODE
 70
     0
  9
$ATTMODE
 70
     1
  9
$TEXTSIZE
 40
0.1
  9
$TRACEWID
 40
1.0
  9
$TEXTSTYLE
  7
ROMANC
  9
$CLAYER
  8
0
  9
$CELTYPE
  6
BYLAYER
  9
$CECOLOR
 62
   256
  9
$DIMSCALE
 40
1.5
  9
$DIMASZ
 40
0.1
  9
$DIMEXO
 40
0.01
  9
$DIMDLI
 40
7.0
  9
$DIMRND
 40
0.0
  9
$DIMDLE
 40
0.0
  9
$DIMEXE
 40
0.01
  9
$DIMTP
 40
0.0
  9
$DIMTM
 40
0.0
  9
$DIMTXT
 40
0.05
  9
$DIMCEN
 40
0.0
  9
$DIMTSZ
 40
0.0
  9
$DIMTOL
 70
     0
  9
$DIMLIM
 70
     0
  9
$DIMTIH
 70
     0
  9
$DIMTOH
 70
     0
  9
$DIMSE1
 70
     0
  9
$DIMSE2
 70
     0
  9
$DIMTAD
 70
     1
  9
$DIMZIN
 70
     0
  9
$DIMBLK
  1

  9
$DIMASO
 70
     1
  9
$DIMSHO
 70
     0
  9
$DIMPOST
  1

  9
$DIMAPOST
  1

  9
$DIMALT
 70
     0
  9
$DIMALTD
 70
     2
  9
$DIMALTF
 40
25.4
  9
$DIMLFAC
 40
1.0
  9
$DIMTOFL
 70
     1
  9
$DIMTVP
 40
0.0
  9
$DIMTIX
 70
     1
  9
$DIMSOXD
 70
     0
  9
$DIMSAH
 70
     0
  9
$DIMBLK1
  1

  9
$DIMBLK2
  1

  9
$DIMSTYLE
  2
MERITXELL
  9
$DIMCLRD
 70
     0
  9
$DIMCLRE
 70
     0
  9
$DIMCLRT
 70
     0
  9
$DIMTFAC
 40
70.0
  9
$DIMGAP
 40
0.025
  9
$LUNITS
 70
     2
  9
$LUPREC
 70
     2
  9
$SKETCHINC
 40
1.0
  9
$FILLETRAD
 40
0.0
  9
$AUNITS
 70
     0
  9
$AUPREC
 70
     0
  9
$MENU
  1
acad
  9
$ELEVATION
 40
0.0
  9
$PELEVATION
 40
0.0
  9
$THICKNESS
 40
0.0
  9
$LIMCHECK
 70
     0
  9
$BLIPMODE
 70
     0
  9
$CHAMFERA
 40
0.0
  9
$CHAMFERB
 40
0.0
  9
$SKPOLY
 70
     0
  9
$TDCREATE
 40
2450927.46195
  9
$TDUPDATE
 40
2451134.393542
  9
$TDINDWG
 40
0.063092
  9
$TDUSRTIMER
 40
0.063092
  9
$USRTIMER
 70
     1
  9
$ANGBASE
 50
0.0
  9
$ANGDIR
 70
     0
  9
$PDMODE
 70
     0
  9
$PDSIZE
 40
0.0
  9
$PLINEWID
 40
0.0
  9
$COORDS
 70
     2
  9
$SPLFRAME
 70
     0
  9
$SPLINETYPE
 70
     6
  9
$SPLINESEGS
 70
     8
  9
$ATTDIA
 70
     0
  9
$ATTREQ
 70
     1
  9
$HANDLING
 70
     1
  9
$HANDSEED
  5
35D
  9
$SURFTAB1
 70
     6
  9
$SURFTAB2
 70
     6
  9
$SURFTYPE
 70
     6
  9
$SURFU
 70
     6
  9
$SURFV
 70
     6
  9
$UCSNAME
  2

  9
$UCSORG
 10
0.0
 20
0.0
 30
0.0
  9
$UCSXDIR
 10
1.0
 20
0.0
 30
0.0
  9
$UCSYDIR
 10
0.0
 20
1.0
 30
0.0
  9
$PUCSNAME
  2

  9
$PUCSORG
 10
0.0
 20
0.0
 30
0.0
  9
$PUCSXDIR
 10
1.0
 20
0.0
 30
0.0
  9
$PUCSYDIR
 10
0.0
 20
1.0
 30
0.0
  9
$USERI1
 70
     0
  9
$USERI2
 70
     0
  9
$USERI3
 70
     0
  9
$USERI4
 70
     0
  9
$USERI5
 70
     0
  9
$USERR1
 40
0.0
  9
$USERR2
 40
0.0
  9
$USERR3
 40
0.0
  9
$USERR4
 40
0.0
  9
$USERR5
 40
0.0
  9
$WORLDVIEW
 70
     1
  9
$SHADEDGE
 70
     3
  9
$SHADEDIF
 70
    70
  9
$TILEMODE
 70
     1
  9
$MAXACTVP
 70
    16
  9
$PLIMCHECK
 70
     0
  9
$PEXTMIN
 10
1.000000E+020
 20
1.000000E+020
 30
1.000000E+020
  9
$PEXTMAX
 10
-1.000000E+020
 20
-1.000000E+020
 30
-1.000000E+020
  9
$PLIMMIN
 10
0.0
 20
0.0
  9
$PLIMMAX
 10
12.0
 20
9.0
  9
$UNITMODE
 70
     0
  9
$VISRETAIN
 70
     0
  9
$PLINEGEN
 70
     0
  9
$PSLTSCALE
 70
     0
  0
ENDSEC
  0
SECTION
  2
TABLES
  0
TABLE
  2
VPORT
 70
     6
  0
VPORT
  2
*ACTIVE
 70
     0
 10
0.0
 20
0.0
 11
1.0
 21
1.0
 12
324.100572
 22
37.291695
 13
0.0
 23
0.0
 14
1.0
 24
1.0
 15
10.0
 25
10.0
 16
0.0
 26
0.0
 36
1.0
 17
0.0
 27
0.0
 37
0.0
 40
15.002178
 41
1.732628
 42
50.0
 43
0.0
 44
0.0
 50
0.0
 51
0.0
 71
     0
 72
   100
 73
     1
 74
     0
 75
     0
 76
     0
 77
     0
 78
     1
  0
ENDTAB
  0
TABLE
  2
LTYPE
 70
     1
  0
LTYPE
  2
CONTINUOUS
 70
     0
  3
Solid line
 72
    65
 73
     0
 40
0.0
  0
ENDTAB
  0
TABLE
  2
LAYER
 70
     2
  0
LAYER
  2
0
 70
     0
 62
     7
  6
CONTINUOUS
  0
LAYER
  2
DEFPOINTS
 70
     0
 62
     7
  6
CONTINUOUS
  0
ENDTAB
  0
TABLE
  2
STYLE
 70
     2
  0
STYLE
  2
STANDARD
 70
     0
 40
0.0
 41
1.0
 50
0.0
 71
     0
 42
0.1
  3
txt
  4

  0
STYLE
  2
ROMANC
 70
     0
 40
0.0
 41
1.0
 50
0.0
 71
     0
 42
0.1
  3
romanc
  4

  0
ENDTAB
  0
TABLE
  2
VIEW
 70
     0
  0
ENDTAB
  0
TABLE
  2
UCS
 70
     0
  0
ENDTAB
  0
TABLE
  2
APPID
 70
     1
  0
APPID
  2
ACAD
 70
     0
  0
ENDTAB
  0
TABLE
  2
DIMSTYLE
 70
     1
  0
DIMSTYLE
  2
MERITXELL
 70
     0
  3

  4

  5

  6

  7

 40
1.5
 41
0.1
 42
0.01
 43
7.0
 44
0.01
 45
0.0
 46
0.0
 47
0.0
 48
0.0
140
0.05
141
0.1
142
0.0
143
25.4
144
1.0
145
0.0
146
70.0
147
0.09
 71
     0
 72
     0
 73
     0
 74
     0
 75
     0
 76
     0
 77
     1
 78
     0
170
     0
171
     2
172
     1
173
     0
174
     1
175
     0
176
     0
177
     0
178
     0
  0
ENDTAB
  0
ENDSEC
  0
SECTION
  2
BLOCKS
  0
BLOCK
  8
0
  2
$MODEL_SPACE
 70
     0
 10
0.0
 20
0.0
 30
0.0
  3
$MODEL_SPACE
  1

  0
ENDBLK
  5
24
  8
0
  0
BLOCK
 67
     1
  8
0
  2
$PAPER_SPACE
 70
     0
 10
0.0
 20
0.0
 30
0.0
  3
$PAPER_SPACE
  1

  0
ENDBLK
  5
22
 67
     1
  8
0
  0
BLOCK
  8
0
  2
*D0
 70
     1
 10
0.0
 20
0.0
 30
0.0
  3
*D0
  1

  0
LINE
  5
275
  8
0
  6
BYBLOCK
 62
     0
 10
323.846537
 20
33.85103
 30
0.0
 11
323.846537
 21
33.499629
 31
0.0
  0
LINE
  5
276
  8
0
  6
BYBLOCK
 62
     0
 10
322.646537
 20
34.21603
 30
0.0
 11
322.646537
 21
33.499629
 31
0.0
  0
LINE
  5
277
  8
0
  6
BYBLOCK
 62
     0
 10
323.696537
 20
33.514629
 30
0.0
 11
322.796537
 21
33.514629
 31
0.0
  0
SOLID
  5
278
  8
0
  6
BYBLOCK
 62
     0
 10
323.696537
 20
33.539629
 30
0.0
 11
323.696537
 21
33.489629
 31
0.0
 12
323.846537
 22
33.514629
 32
0.0
 13
323.846537
 23
33.514629
 33
0.0
  0
SOLID
  5
279
  8
0
  6
BYBLOCK
 62
     0
 10
322.796537
 20
33.539629
 30
0.0
 11
322.796537
 21
33.489629
 31
0.0
 12
322.646537
 22
33.514629
 32
0.0
 13
322.646537
 23
33.514629
 33
0.0
  0
TEXT
  8
0
  40
0.075
  5
34D
  62
0
  72
0
  71
0
 10
323.097
 20
33.4569
 30
0.000000
  1
1.20
  7
ROMANC
  0
POINT
  5
27B
  8
DEFPOINTS
  6
BYBLOCK
 62
     0
 10
323.846537
 20
33.86603
 30
0.0
  0
POINT
  5
27C
  8
DEFPOINTS
  6
BYBLOCK
 62
     0
 10
322.646537
 20
34.23103
 30
0.0
  0
POINT
  5
27D
  8
DEFPOINTS
  6
BYBLOCK
 62
     0
 10
322.646537
 20
33.514629
 30
0.0
  0
ENDBLK
  5
27E
  8
0
  0
BLOCK
  8
0
  2
*D1
 70
     1
 10
0.0
 20
0.0
 30
0.0
  3
*D1
  1

  0
LINE
  5
25C
  8
0
  6
BYBLOCK
 62
     0
 10
323.846537
 20
33.86603
 30
0.0
 11
323.846537
 21
33.499629
 31
0.0
  0
LINE
  5
25D
  8
0
  6
BYBLOCK
 62
     0
 10
326.546537
 20
33.86603
 30
0.0
 11
326.546537
 21
33.499629
 31
0.0
  0
LINE
  5
25E
  8
0
  6
BYBLOCK
 62
     0
 10
323.996537
 20
33.514629
 30
0.0
 11
326.396537
 21
33.514629
 31
0.0
  0
SOLID
  5
25F
  8
0
  6
BYBLOCK
 62
     0
 10
323.996537
 20
33.539629
 30
0.0
 11
323.996537
 21
33.489629
 31
0.0
 12
323.846537
 22
33.514629
 32
0.0
 13
323.846537
 23
33.514629
 33
0.0
  0
SOLID
  5
260
  8
0
  6
BYBLOCK
 62
     0
 10
326.396537
 20
33.539629
 30
0.0
 11
326.396537
 21
33.489629
 31
0.0
 12
326.546537
 22
33.514629
 32
0.0
 13
326.546537
 23
33.514629
 33
0.0
  0
TEXT
  8
0
  40
0.075
  5
34E
  62
0
  72
0
  71
0
 10
325.047
 20
33.4569
 30
0.000000
  1
2.70
  7
ROMANC
  0
POINT
  5
262
  8
DEFPOINTS
  6
BYBLOCK
 62
     0
 10
323.846537
 20
33.88103
 30
0.0
  0
POINT
  5
263
  8
DEFPOINTS
  6
BYBLOCK
 62
     0
 10
326.546537
 20
33.88103
 30
0.0
  0
POINT
  5
264
  8
DEFPOINTS
  6
BYBLOCK
 62
     0
 10
326.546537
 20
33.514629
 30
0.0
  0
ENDBLK
  5
265
  8
0
  0
BLOCK
  8
0
  2
*D2
 70
     1
 10
0.0
 20
0.0
 30
0.0
  3
*D2
  1

  0
LINE
  5
269
  8
0
  6
BYBLOCK
 62
     0
 10
322.646537
 20
34.21603
 30
0.0
 11
322.646537
 21
33.201868
 31
0.0
  0
LINE
  5
26A
  8
0
  6
BYBLOCK
 62
     0
 10
326.546537
 20
33.86603
 30
0.0
 11
326.546537
 21
33.201868
 31
0.0
  0
LINE
  5
26B
  8
0
  6
BYBLOCK
 62
     0
 10
322.796537
 20
33.216868
 30
0.0
 11
326.396537
 21
33.216868
 31
0.0
  0
SOLID
  5
26C
  8
0
  6
BYBLOCK
 62
     0
 10
322.796537
 20
33.241868
 30
0.0
 11
322.796537
 21
33.191868
 31
0.0
 12
322.646537
 22
33.216868
 32
0.0
 13
322.646537
 23
33.216868
 33
0.0
  0
SOLID
  5
26D
  8
0
  6
BYBLOCK
 62
     0
 10
326.396537
 20
33.241868
 30
0.0
 11
326.396537
 21
33.191868
 31
0.0
 12
326.546537
 22
33.216868
 32
0.0
 13
326.546537
 23
33.216868
 33
0.0
  0
TEXT
  8
0
  40
0.075
  5
34F
  62
0
  72
0
  71
0
 10
324.447
 20
33.1591
 30
0.000000
  1
3.90
  7
ROMANC
  0
POINT
  5
26F
  8
DEFPOINTS
  6
BYBLOCK
 62
     0
 10
322.646537
 20
34.23103
 30
0.0
  0
POINT
  5
270
  8
DEFPOINTS
  6
BYBLOCK
 62
     0
 10
326.546537
 20
33.88103
 30
0.0
  0
POINT
  5
271
  8
DEFPOINTS
  6
BYBLOCK
 62
     0
 10
326.546537
 20
33.216868
 30
0.0
  0
ENDBLK
  5
272
  8
0
  0
BLOCK
  8
0
  2
*D3
 70
     1
 10
0.0
 20
0.0
 30
0.0
  3
*D3
  1

  0
LINE
  5
28F
  8
0
  6
BYBLOCK
 62
     0
 10
322.631537
 20
34.23103
 30
0.0
 11
322.232336
 21
34.23103
 31
0.0
  0
LINE
  5
290
  8
0
  6
BYBLOCK
 62
     0
 10
323.831537
 20
33.88103
 30
0.0
 11
322.232336
 21
33.88103
 31
0.0
  0
LINE
  5
291
  8
0
  6
BYBLOCK
 62
     0
 10
322.247336
 20
34.38103
 30
0.0
 11
322.247336
 21
34.53103
 31
0.0
  0
LINE
  5
292
  8
0
  6
BYBLOCK
 62
     0
 10
322.247336
 20
33.73103
 30
0.0
 11
322.247336
 21
33.58103
 31
0.0
  0
LINE
  5
293
  8
0
  6
BYBLOCK
 62
     0
 10
322.247336
 20
34.23103
 30
0.0
 11
322.247336
 21
33.88103
 31
0.0
  0
SOLID
  5
294
  8
0
  6
BYBLOCK
 62
     0
 10
322.222336
 20
34.38103
 30
0.0
 11
322.272336
 21
34.38103
 31
0.0
 12
322.247336
 22
34.23103
 32
0.0
 13
322.247336
 23
34.23103
 33
0.0
  0
SOLID
  5
295
  8
0
  6
BYBLOCK
 62
     0
 10
322.222336
 20
33.73103
 30
0.0
 11
322.272336
 21
33.73103
 31
0.0
 12
322.247336
 22
33.88103
 32
0.0
 13
322.247336
 23
33.88103
 33
0.0
  0
TEXT
  8
0
  40
0.075
  5
350
  62
0
  72
0
  71
0
 10
322.022
 20
33.9233
 30
0.000000
  1
0.35
  7
ROMANC
  0
POINT
  5
297
  8
DEFPOINTS
  6
BYBLOCK
 62
     0
 10
322.646537
 20
34.23103
 30
0.0
  0
POINT
  5
298
  8
DEFPOINTS
  6
BYBLOCK
 62
     0
 10
323.846537
 20
33.88103
 30
0.0
  0
POINT
  5
299
  8
DEFPOINTS
  6
BYBLOCK
 62
     0
 10
322.247336
 20
33.88103
 30
0.0
  0
ENDBLK
  5
29A
  8
0
  0
BLOCK
  8
0
  2
*D4
 70
     1
 10
0.0
 20
0.0
 30
0.0
  3
*D4
  1

  0
LINE
  5
29D
  8
0
  6
BYBLOCK
 62
     0
 10
322.631537
 20
34.68103
 30
0.0
 11
322.232336
 21
34.68103
 31
0.0
  0
LINE
  5
29E
  8
0
  6
BYBLOCK
 62
     0
 10
322.631537
 20
34.23103
 30
0.0
 11
322.232336
 21
34.23103
 31
0.0
  0
LINE
  5
29F
  8
0
  6
BYBLOCK
 62
     0
 10
322.247336
 20
34.53103
 30
0.0
 11
322.247336
 21
34.38103
 31
0.0
  0
SOLID
  5
2A0
  8
0
  6
BYBLOCK
 62
     0
 10
322.222336
 20
34.53103
 30
0.0
 11
322.272336
 21
34.53103
 31
0.0
 12
322.247336
 22
34.68103
 32
0.0
 13
322.247336
 23
34.68103
 33
0.0
  0
SOLID
  5
2A1
  8
0
  6
BYBLOCK
 62
     0
 10
322.222336
 20
34.38103
 30
0.0
 11
322.272336
 21
34.38103
 31
0.0
 12
322.247336
 22
34.23103
 32
0.0
 13
322.247336
 23
34.23103
 33
0.0
  0
TEXT
  8
0
  40
0.075
  5
351
  62
0
  72
0
  71
0
 10
322.022
 20
34.3233
 30
0.000000
  1
0.45
  7
ROMANC
  0
POINT
  5
2A3
  8
DEFPOINTS
  6
BYBLOCK
 62
     0
 10
322.646537
 20
34.68103
 30
0.0
  0
POINT
  5
2A4
  8
DEFPOINTS
  6
BYBLOCK
 62
     0
 10
322.646537
 20
34.23103
 30
0.0
  0
POINT
  5
2A5
  8
DEFPOINTS
  6
BYBLOCK
 62
     0
 10
322.247336
 20
34.23103
 30
0.0
  0
ENDBLK
  5
2A6
  8
0
  0
BLOCK
  8
0
  2
*D5
 70
     1
 10
0.0
 20
0.0
 30
0.0
  3
*D5
  1

  0
LINE
  5
2C6
  8
0
  6
BYBLOCK
 62
     0
 10
326.561537
 20
34.68103
 30
0.0
 11
326.962508
 21
34.68103
 31
0.0
  0
LINE
  5
2C7
  8
0
  6
BYBLOCK
 62
     0
 10
326.561537
 20
33.88103
 30
0.0
 11
326.962508
 21
33.88103
 31
0.0
  0
LINE
  5
2C8
  8
0
  6
BYBLOCK
 62
     0
 10
326.947508
 20
34.53103
 30
0.0
 11
326.947508
 21
34.03103
 31
0.0
  0
SOLID
  5
2C9
  8
0
  6
BYBLOCK
 62
     0
 10
326.922508
 20
34.53103
 30
0.0
 11
326.972508
 21
34.53103
 31
0.0
 12
326.947508
 22
34.68103
 32
0.0
 13
326.947508
 23
34.68103
 33
0.0
  0
SOLID
  5
2CA
  8
0
  6
BYBLOCK
 62
     0
 10
326.922508
 20
34.03103
 30
0.0
 11
326.972508
 21
34.03103
 31
0.0
 12
326.947508
 22
33.88103
 32
0.0
 13
326.947508
 23
33.88103
 33
0.0
  0
TEXT
  8
0
  40
0.075
  5
352
  62
0
  72
0
  71
0
 10
326.723
 20
34.1483
 30
0.000000
  1
0.80
  7
ROMANC
  0
POINT
  5
2CC
  8
DEFPOINTS
  6
BYBLOCK
 62
     0
 10
326.546537
 20
34.68103
 30
0.0
  0
POINT
  5
2CD
  8
DEFPOINTS
  6
BYBLOCK
 62
     0
 10
326.546537
 20
33.88103
 30
0.0
  0
POINT
  5
2CE
  8
DEFPOINTS
  6
BYBLOCK
 62
     0
 10
326.947508
 20
33.88103
 30
0.0
  0
ENDBLK
  5
2CF
  8
0
  0
BLOCK
  8
0
  2
*D6
 70
     1
 10
0.0
 20
0.0
 30
0.0
  3
*D6
  1

  0
LINE
  5
2D3
  8
0
  6
BYBLOCK
 62
     0
 10
324.611537
 20
36.58103
 30
0.0
 11
327.351872
 21
36.58103
 31
0.0
  0
LINE
  5
2D4
  8
0
  6
BYBLOCK
 62
     0
 10
326.561537
 20
33.88103
 30
0.0
 11
327.351872
 21
33.88103
 31
0.0
  0
LINE
  5
2D5
  8
0
  6
BYBLOCK
 62
     0
 10
327.336872
 20
36.43103
 30
0.0
 11
327.336872
 21
34.03103
 31
0.0
  0
SOLID
  5
2D6
  8
0
  6
BYBLOCK
 62
     0
 10
327.311872
 20
36.43103
 30
0.0
 11
327.361872
 21
36.43103
 31
0.0
 12
327.336872
 22
36.58103
 32
0.0
 13
327.336872
 23
36.58103
 33
0.0
  0
SOLID
  5
2D7
  8
0
  6
BYBLOCK
 62
     0
 10
327.311872
 20
34.03103
 30
0.0
 11
327.361872
 21
34.03103
 31
0.0
 12
327.336872
 22
33.88103
 32
0.0
 13
327.336872
 23
33.88103
 33
0.0
  0
TEXT
  8
0
  40
0.075
  5
353
  62
0
  72
0
  71
0
 10
327.112
 20
35.0983
 30
0.000000
  1
2.70
  7
ROMANC
  0
POINT
  5
2D9
  8
DEFPOINTS
  6
BYBLOCK
 62
     0
 10
324.596537
 20
36.58103
 30
0.0
  0
POINT
  5
2DA
  8
DEFPOINTS
  6
BYBLOCK
 62
     0
 10
326.546537
 20
33.88103
 30
0.0
  0
POINT
  5
2DB
  8
DEFPOINTS
  6
BYBLOCK
 62
     0
 10
327.336872
 20
33.88103
 30
0.0
  0
ENDBLK
  5
2DC
  8
0
  0
BLOCK
  8
0
  2
*D7
 70
     1
 10
0.0
 20
0.0
 30
0.0
  3
*D7
  1

  0
LINE
  5
2E1
  8
0
  6
BYBLOCK
 62
     0
 10
322.796537
 20
34.68103
 30
0.0
 11
326.396537
 21
34.68103
 31
0.0
  0
SOLID
  5
2E2
  8
0
  6
BYBLOCK
 62
     0
 10
322.796537
 20
34.70603
 30
0.0
 11
322.796537
 21
34.65603
 31
0.0
 12
322.646537
 22
34.68103
 32
0.0
 13
322.646537
 23
34.68103
 33
0.0
  0
SOLID
  5
2E3
  8
0
  6
BYBLOCK
 62
     0
 10
326.396537
 20
34.70603
 30
0.0
 11
326.396537
 21
34.65603
 31
0.0
 12
326.546537
 22
34.68103
 32
0.0
 13
326.546537
 23
34.68103
 33
0.0
  0
TEXT
  8
0
  40
0.075
  5
354
  62
0
  72
0
  71
0
 10
324.447
 20
34.6233
 30
0.000000
  1
3.90
  7
ROMANC
  0
POINT
  5
2E5
  8
DEFPOINTS
  6
BYBLOCK
 62
     0
 10
322.646537
 20
34.68103
 30
0.0
  0
POINT
  5
2E6
  8
DEFPOINTS
  6
BYBLOCK
 62
     0
 10
326.546537
 20
34.68103
 30
0.0
  0
POINT
  5
2E7
  8
DEFPOINTS
  6
BYBLOCK
 62
     0
 10
326.546537
 20
34.68103
 30
0.0
  0
ENDBLK
  5
2E8
  8
0
  0
ENDSEC
  0
SECTION
  2
ENTITIES
  0
LINE
  5
27
  8
0
 10
329.348696
 20
29.863623
 30
0.0
 11
329.348696
 21
44.713623
 31
0.0
  0
LINE
  5
28
  8
0
 10
318.848696
 20
44.713623
 30
0.0
 11
318.848696
 21
29.863623
 31
0.0
  0
LINE
  5
29
  8
0
 10
318.848696
 20
29.863623
 30
0.0
 11
329.348696
 21
29.863623
 31
0.0
  0
TEXT
  5
2A
  8
0
 10
321.773149
 20
42.309482
 30
0.0
 40
0.3
  1
TIPUS   NT848
  7
ROMANC
  0
TEXT
  5
2D
  8
0
 10
321.735227
 20
40.527599
 30
0.0
 40
0.3
  1
P = 115,3 dm
  7
ROMANC
  0
TEXT
  5
2E
  8
0
 10
321.786243
 20
41.225178
 30
0.0
 40
0.3
  1
S = 848 dm
  7
ROMANC
  0
TEXT
  5
2F
  8
0
 10
321.773149
 20
41.823768
 30
0.0
 40
0.3
  1
ESCALA  1:50
  7
ROMANC
  0
TEXT
  5
30
  8
0
 10
324.991178
 20
41.531094
 30
0.0
 40
0.1
  1
2
  7
ROMANC
  0
LINE
  5
31
  8
0
 10
329.348696
 20
44.713623
 30
0.0
 11
318.848696
 21
44.713623
 31
0.0
  0
ARC
  5
2F2
  8
0
 10
323.532356
 20
34.630372
 30
0.0
 40
1.943658
 50
1.490796
 51
178.509204
  0
LINE
  5
2F3
  8
0
 10
321.589356
 20
34.680939
 30
0.0
 11
321.589356
 21
34.23803
 31
0.0
  0
LINE
  5
2F4
  8
0
 10
321.589356
 20
34.23803
 30
0.0
 11
322.789356
 21
34.23803
 31
0.0
  0
LINE
  5
2F5
  8
0
 10
322.789356
 20
34.23803
 30
0.0
 11
322.789356
 21
33.88803
 31
0.0
  0
LINE
  5
2F6
  8
0
 10
322.789356
 20
33.88803
 30
0.0
 11
325.475356
 21
33.88803
 31
0.0
  0
LINE
  5
2F7
  8
0
 10
325.475356
 20
33.88803
 30
0.0
 11
325.475356
 21
34.680939
 31
0.0
  0
ARC
  5
2F8
  8
0
 10
323.532356
 20
34.630372
 30
0.0
 40
1.957658
 50
1.485455
 51
178.514545
  0
LINE
  5
2F9
  8
0
 10
321.575356
 20
34.681121
 30
0.0
 11
321.575356
 21
34.22403
 31
0.0
  0
LINE
  5
2FA
  8
0
 10
321.575356
 20
34.22403
 30
0.0
 11
322.775356
 21
34.22403
 31
0.0
  0
LINE
  5
2FB
  8
0
 10
322.775356
 20
34.22403
 30
0.0
 11
322.775356
 21
33.87403
 31
0.0
  0
LINE
  5
2FC
  8
0
 10
322.775356
 20
33.87403
 30
0.0
 11
325.489356
 21
33.87403
 31
0.0
  0
LINE
  5
2FD
  8
0
 10
325.489356
 20
33.87403
 30
0.0
 11
325.489356
 21
34.681121
 31
0.0
  0
LINE
  5
2FE
  8
0
  6
BYBLOCK
 62
     0
 10
321.732356
 20
34.68103
 30
0.0
 11
325.332356
 21
34.68103
 31
0.0
  0
SOLID
  5
2FF
  8
0
  6
BYBLOCK
 62
     0
 10
321.732356
 20
34.70603
 30
0.0
 11
321.732356
 21
34.65603
 31
0.0
 12
321.582356
 22
34.68103
 32
0.0
 13
321.582356
 23
34.68103
 33
0.0
  0
SOLID
  5
300
  8
0
  6
BYBLOCK
 62
     0
 10
325.332356
 20
34.70603
 30
0.0
 11
325.332356
 21
34.65603
 31
0.0
 12
325.482356
 22
34.68103
 32
0.0
 13
325.482356
 23
34.68103
 33
0.0
  0
TEXT
  8
0
  40
0.075
  5
355
  62
0
  72
0
  71
0
 10
323.382
 20
34.6233
 30
0.000000
  1
3.90
  7
ROMANC
  0
POINT
  5
302
  8
DEFPOINTS
  6
BYBLOCK
 62
     0
 10
321.582356
 20
34.68103
 30
0.0
  0
POINT
  5
303
  8
DEFPOINTS
  6
BYBLOCK
 62
     0
 10
325.482356
 20
34.68103
 30
0.0
  0
POINT
  5
304
  8
DEFPOINTS
  6
BYBLOCK
 62
     0
 10
325.482356
 20
34.68103
 30
0.0
  0
ARC
  5
305
  8
0
 10
323.532356
 20
34.630372
 30
0.0
 40
1.950658
 50
1.488118
 51
178.511882
  0
LINE
  5
306
  8
0
 10
321.582356
 20
34.68103
 30
0.0
 11
321.582356
 21
34.23103
 31
0.0
  0
LINE
  5
307
  8
0
 10
321.582356
 20
34.23103
 30
0.0
 11
322.782356
 21
34.23103
 31
0.0
  0
LINE
  5
308
  8
0
 10
322.782356
 20
34.23103
 30
0.0
 11
322.782356
 21
33.88103
 31
0.0
  0
LINE
  5
309
  8
0
 10
322.782356
 20
33.88103
 30
0.0
 11
325.482356
 21
33.88103
 31
0.0
  0
LINE
  5
30A
  8
0
 10
325.482356
 20
33.88103
 30
0.0
 11
325.482356
 21
34.68103
 31
0.0
  0
LINE
  5
30B
  8
0
  6
BYBLOCK
 62
     0
 10
323.547356
 20
36.58103
 30
0.0
 11
326.28769
 21
36.58103
 31
0.0
  0
LINE
  5
30C
  8
0
  6
BYBLOCK
 62
     0
 10
325.497356
 20
33.88103
 30
0.0
 11
326.28769
 21
33.88103
 31
0.0
  0
LINE
  5
30D
  8
0
  6
BYBLOCK
 62
     0
 10
326.27269
 20
36.43103
 30
0.0
 11
326.27269
 21
34.03103
 31
0.0
  0
SOLID
  5
30E
  8
0
  6
BYBLOCK
 62
     0
 10
326.24769
 20
36.43103
 30
0.0
 11
326.29769
 21
36.43103
 31
0.0
 12
326.27269
 22
36.58103
 32
0.0
 13
326.27269
 23
36.58103
 33
0.0
  0
SOLID
  5
30F
  8
0
  6
BYBLOCK
 62
     0
 10
326.24769
 20
34.03103
 30
0.0
 11
326.29769
 21
34.03103
 31
0.0
 12
326.27269
 22
33.88103
 32
0.0
 13
326.27269
 23
33.88103
 33
0.0
  0
TEXT
  8
0
  40
0.075
  5
356
  62
0
  72
0
  71
0
 10
326.048
 20
35.0983
 30
0.000000
  1
2.70
  7
ROMANC
  0
POINT
  5
311
  8
DEFPOINTS
  6
BYBLOCK
 62
     0
 10
323.532356
 20
36.58103
 30
0.0
  0
POINT
  5
312
  8
DEFPOINTS
  6
BYBLOCK
 62
     0
 10
325.482356
 20
33.88103
 30
0.0
  0
POINT
  5
313
  8
DEFPOINTS
  6
BYBLOCK
 62
     0
 10
326.27269
 20
33.88103
 30
0.0
  0
LINE
  5
314
  8
0
  6
BYBLOCK
 62
     0
 10
325.497356
 20
34.68103
 30
0.0
 11
325.898327
 21
34.68103
 31
0.0
  0
LINE
  5
315
  8
0
  6
BYBLOCK
 62
     0
 10
325.497356
 20
33.88103
 30
0.0
 11
325.898327
 21
33.88103
 31
0.0
  0
LINE
  5
316
  8
0
  6
BYBLOCK
 62
     0
 10
325.883327
 20
34.53103
 30
0.0
 11
325.883327
 21
34.03103
 31
0.0
  0
SOLID
  5
317
  8
0
  6
BYBLOCK
 62
     0
 10
325.858327
 20
34.53103
 30
0.0
 11
325.908327
 21
34.53103
 31
0.0
 12
325.883327
 22
34.68103
 32
0.0
 13
325.883327
 23
34.68103
 33
0.0
  0
SOLID
  5
318
  8
0
  6
BYBLOCK
 62
     0
 10
325.858327
 20
34.03103
 30
0.0
 11
325.908327
 21
34.03103
 31
0.0
 12
325.883327
 22
33.88103
 32
0.0
 13
325.883327
 23
33.88103
 33
0.0
  0
TEXT
  8
0
  40
0.075
  5
357
  62
0
  72
0
  71
0
 10
325.658
 20
34.1483
 30
0.000000
  1
0.80
  7
ROMANC
  0
POINT
  5
31A
  8
DEFPOINTS
  6
BYBLOCK
 62
     0
 10
325.482356
 20
34.68103
 30
0.0
  0
POINT
  5
31B
  8
DEFPOINTS
  6
BYBLOCK
 62
     0
 10
325.482356
 20
33.88103
 30
0.0
  0
POINT
  5
31C
  8
DEFPOINTS
  6
BYBLOCK
 62
     0
 10
325.883327
 20
33.88103
 30
0.0
  0
LINE
  5
31D
  8
0
  6
BYBLOCK
 62
     0
 10
321.567356
 20
34.68103
 30
0.0
 11
321.168155
 21
34.68103
 31
0.0
  0
LINE
  5
31E
  8
0
  6
BYBLOCK
 62
     0
 10
321.567356
 20
34.23103
 30
0.0
 11
321.168155
 21
34.23103
 31
0.0
  0
LINE
  5
31F
  8
0
  6
BYBLOCK
 62
     0
 10
321.183155
 20
34.53103
 30
0.0
 11
321.183155
 21
34.38103
 31
0.0
  0
SOLID
  5
320
  8
0
  6
BYBLOCK
 62
     0
 10
321.158155
 20
34.53103
 30
0.0
 11
321.208155
 21
34.53103
 31
0.0
 12
321.183155
 22
34.68103
 32
0.0
 13
321.183155
 23
34.68103
 33
0.0
  0
SOLID
  5
321
  8
0
  6
BYBLOCK
 62
     0
 10
321.158155
 20
34.38103
 30
0.0
 11
321.208155
 21
34.38103
 31
0.0
 12
321.183155
 22
34.23103
 32
0.0
 13
321.183155
 23
34.23103
 33
0.0
  0
TEXT
  8
0
  40
0.075
  5
358
  62
0
  72
0
  71
0
 10
320.958
 20
34.3233
 30
0.000000
  1
0.45
  7
ROMANC
  0
POINT
  5
323
  8
DEFPOINTS
  6
BYBLOCK
 62
     0
 10
321.582356
 20
34.68103
 30
0.0
  0
POINT
  5
324
  8
DEFPOINTS
  6
BYBLOCK
 62
     0
 10
321.582356
 20
34.23103
 30
0.0
  0
POINT
  5
325
  8
DEFPOINTS
  6
BYBLOCK
 62
     0
 10
321.183155
 20
34.23103
 30
0.0
  0
LINE
  5
326
  8
0
  6
BYBLOCK
 62
     0
 10
321.567356
 20
34.23103
 30
0.0
 11
321.168155
 21
34.23103
 31
0.0
  0
LINE
  5
327
  8
0
  6
BYBLOCK
 62
     0
 10
322.767356
 20
33.88103
 30
0.0
 11
321.168155
 21
33.88103
 31
0.0
  0
LINE
  5
328
  8
0
  6
BYBLOCK
 62
     0
 10
321.183155
 20
34.38103
 30
0.0
 11
321.183155
 21
34.53103
 31
0.0
  0
LINE
  5
329
  8
0
  6
BYBLOCK
 62
     0
 10
321.183155
 20
33.73103
 30
0.0
 11
321.183155
 21
33.58103
 31
0.0
  0
LINE
  5
32A
  8
0
  6
BYBLOCK
 62
     0
 10
321.183155
 20
34.23103
 30
0.0
 11
321.183155
 21
33.88103
 31
0.0
  0
SOLID
  5
32B
  8
0
  6
BYBLOCK
 62
     0
 10
321.158155
 20
34.38103
 30
0.0
 11
321.208155
 21
34.38103
 31
0.0
 12
321.183155
 22
34.23103
 32
0.0
 13
321.183155
 23
34.23103
 33
0.0
  0
SOLID
  5
32C
  8
0
  6
BYBLOCK
 62
     0
 10
321.158155
 20
33.73103
 30
0.0
 11
321.208155
 21
33.73103
 31
0.0
 12
321.183155
 22
33.88103
 32
0.0
 13
321.183155
 23
33.88103
 33
0.0
  0
TEXT
  8
0
  40
0.075
  5
359
  62
0
  72
0
  71
0
 10
320.958
 20
33.9233
 30
0.000000
  1
0.35
  7
ROMANC
  0
POINT
  5
32E
  8
DEFPOINTS
  6
BYBLOCK
 62
     0
 10
321.582356
 20
34.23103
 30
0.0
  0
POINT
  5
32F
  8
DEFPOINTS
  6
BYBLOCK
 62
     0
 10
322.782356
 20
33.88103
 30
0.0
  0
POINT
  5
330
  8
DEFPOINTS
  6
BYBLOCK
 62
     0
 10
321.183155
 20
33.88103
 30
0.0
  0
LINE
  5
331
  8
0
  6
BYBLOCK
 62
     0
 10
321.582356
 20
34.21603
 30
0.0
 11
321.582356
 21
33.201868
 31
0.0
  0
LINE
  5
332
  8
0
  6
BYBLOCK
 62
     0
 10
325.482356
 20
33.86603
 30
0.0
 11
325.482356
 21
33.201868
 31
0.0
  0
LINE
  5
333
  8
0
  6
BYBLOCK
 62
     0
 10
321.732356
 20
33.216868
 30
0.0
 11
325.332356
 21
33.216868
 31
0.0
  0
SOLID
  5
334
  8
0
  6
BYBLOCK
 62
     0
 10
321.732356
 20
33.241868
 30
0.0
 11
321.732356
 21
33.191868
 31
0.0
 12
321.582356
 22
33.216868
 32
0.0
 13
321.582356
 23
33.216868
 33
0.0
  0
SOLID
  5
335
  8
0
  6
BYBLOCK
 62
     0
 10
325.332356
 20
33.241868
 30
0.0
 11
325.332356
 21
33.191868
 31
0.0
 12
325.482356
 22
33.216868
 32
0.0
 13
325.482356
 23
33.216868
 33
0.0
  0
TEXT
  8
0
  40
0.075
  5
35A
  62
0
  72
0
  71
0
 10
323.382
 20
33.1591
 30
0.000000
  1
3.90
  7
ROMANC
  0
POINT
  5
337
  8
DEFPOINTS
  6
BYBLOCK
 62
     0
 10
321.582356
 20
34.23103
 30
0.0
  0
POINT
  5
338
  8
DEFPOINTS
  6
BYBLOCK
 62
     0
 10
325.482356
 20
33.88103
 30
0.0
  0
POINT
  5
339
  8
DEFPOINTS
  6
BYBLOCK
 62
     0
 10
325.482356
 20
33.216868
 30
0.0
  0
LINE
  5
33A
  8
0
  6
BYBLOCK
 62
     0
 10
322.782356
 20
33.86603
 30
0.0
 11
322.782356
 21
33.499629
 31
0.0
  0
LINE
  5
33B
  8
0
  6
BYBLOCK
 62
     0
 10
325.482356
 20
33.86603
 30
0.0
 11
325.482356
 21
33.499629
 31
0.0
  0
LINE
  5
33C
  8
0
  6
BYBLOCK
 62
     0
 10
322.932356
 20
33.514629
 30
0.0
 11
325.332356
 21
33.514629
 31
0.0
  0
SOLID
  5
33D
  8
0
  6
BYBLOCK
 62
     0
 10
322.932356
 20
33.539629
 30
0.0
 11
322.932356
 21
33.489629
 31
0.0
 12
322.782356
 22
33.514629
 32
0.0
 13
322.782356
 23
33.514629
 33
0.0
  0
SOLID
  5
33E
  8
0
  6
BYBLOCK
 62
     0
 10
325.332356
 20
33.539629
 30
0.0
 11
325.332356
 21
33.489629
 31
0.0
 12
325.482356
 22
33.514629
 32
0.0
 13
325.482356
 23
33.514629
 33
0.0
  0
TEXT
  8
0
  40
0.075
  5
35B
  62
0
  72
0
  71
0
 10
323.982
 20
33.4569
 30
0.000000
  1
2.70
  7
ROMANC
  0
POINT
  5
340
  8
DEFPOINTS
  6
BYBLOCK
 62
     0
 10
322.782356
 20
33.88103
 30
0.0
  0
POINT
  5
341
  8
DEFPOINTS
  6
BYBLOCK
 62
     0
 10
325.482356
 20
33.88103
 30
0.0
  0
POINT
  5
342
  8
DEFPOINTS
  6
BYBLOCK
 62
     0
 10
325.482356
 20
33.514629
 30
0.0
  0
LINE
  5
343
  8
0
  6
BYBLOCK
 62
     0
 10
322.782356
 20
33.85103
 30
0.0
 11
322.782356
 21
33.499629
 31
0.0
  0
LINE
  5
344
  8
0
  6
BYBLOCK
 62
     0
 10
321.582356
 20
34.21603
 30
0.0
 11
321.582356
 21
33.499629
 31
0.0
  0
LINE
  5
345
  8
0
  6
BYBLOCK
 62
     0
 10
322.632356
 20
33.514629
 30
0.0
 11
321.732356
 21
33.514629
 31
0.0
  0
SOLID
  5
346
  8
0
  6
BYBLOCK
 62
     0
 10
322.632356
 20
33.539629
 30
0.0
 11
322.632356
 21
33.489629
 31
0.0
 12
322.782356
 22
33.514629
 32
0.0
 13
322.782356
 23
33.514629
 33
0.0
  0
SOLID
  5
347
  8
0
  6
BYBLOCK
 62
     0
 10
321.732356
 20
33.539629
 30
0.0
 11
321.732356
 21
33.489629
 31
0.0
 12
321.582356
 22
33.514629
 32
0.0
 13
321.582356
 23
33.514629
 33
0.0
  0
TEXT
  8
0
  40
0.075
  5
35C
  62
0
  72
0
  71
0
 10
322.032
 20
33.4569
 30
0.000000
  1
1.20
  7
ROMANC
  0
POINT
  5
349
  8
DEFPOINTS
  6
BYBLOCK
 62
     0
 10
322.782356
 20
33.86603
 30
0.0
  0
POINT
  5
34A
  8
DEFPOINTS
  6
BYBLOCK
 62
     0
 10
321.582356
 20
34.23103
 30
0.0
  0
POINT
  5
34B
  8
DEFPOINTS
  6
BYBLOCK
 62
     0
 10
321.582356
 20
33.514629
 30
0.0
  0
ENDSEC
  0
EOF
