  0
SECTION
  2
HEADER
  9
$ACADVER
  1
AC1009
  9
$INSBASE
 10
206.056744
 20
216.151256
 30
0.0
  9
$EXTMIN
 10
206.056744
 20
216.151256
 30
0.0
  9
$EXTMAX
 10
216.556744
 20
231.001256
 30
0.0
  9
$LIMMIN
 10
0.0
 20
0.0
  9
$LIMMAX
 10
410.0
 20
287.0
  9
$ORTHOMODE
 70
     1
  9
$REGENMODE
 70
     1
  9
$FILLMODE
 70
     1
  9
$QTEXTMODE
 70
     0
  9
$MIRRTEXT
 70
     1
  9
$DRAGMODE
 70
     2
  9
$LTSCALE
 40
25.0
  9
$OSMODE
 70
    32
  9
$ATTMODE
 70
     1
  9
$TEXTSIZE
 40
0.1
  9
$TRACEWID
 40
0.3
  9
$TEXTSTYLE
  7
STANDARD
  9
$CLAYER
  8
0
  9
$CELTYPE
  6
BYLAYER
  9
$CECOLOR
 62
   256
  9
$DIMSCALE
 40
1.0
  9
$DIMASZ
 40
3.5
  9
$DIMEXO
 40
0.1
  9
$DIMDLI
 40
7.0
  9
$DIMRND
 40
0.0
  9
$DIMDLE
 40
0.0
  9
$DIMEXE
 40
1.8
  9
$DIMTP
 40
0.0
  9
$DIMTM
 40
0.0
  9
$DIMTXT
 40
3.5
  9
$DIMCEN
 40
1.5
  9
$DIMTSZ
 40
0.0
  9
$DIMTOL
 70
     0
  9
$DIMLIM
 70
     0
  9
$DIMTIH
 70
     0
  9
$DIMTOH
 70
     0
  9
$DIMSE1
 70
     0
  9
$DIMSE2
 70
     0
  9
$DIMTAD
 70
     0
  9
$DIMZIN
 70
     0
  9
$DIMBLK
  1

  9
$DIMASO
 70
     1
  9
$DIMSHO
 70
     0
  9
$DIMPOST
  1

  9
$DIMAPOST
  1

  9
$DIMALT
 70
     0
  9
$DIMALTD
 70
     2
  9
$DIMALTF
 40
25.4
  9
$DIMLFAC
 40
1.0
  9
$DIMTOFL
 70
     0
  9
$DIMTVP
 40
0.0
  9
$DIMTIX
 70
     0
  9
$DIMSOXD
 70
     0
  9
$DIMSAH
 70
     0
  9
$DIMBLK1
  1

  9
$DIMBLK2
  1

  9
$DIMSTYLE
  2
*UNNAMED
  9
$DIMCLRD
 70
     0
  9
$DIMCLRE
 70
     0
  9
$DIMCLRT
 70
     0
  9
$DIMTFAC
 40
1.0
  9
$DIMGAP
 40
0.09
  9
$LUNITS
 70
     2
  9
$LUPREC
 70
     2
  9
$SKETCHINC
 40
1.0
  9
$FILLETRAD
 40
0.0
  9
$AUNITS
 70
     0
  9
$AUPREC
 70
     0
  9
$MENU
  1
acad
  9
$ELEVATION
 40
0.0
  9
$PELEVATION
 40
0.0
  9
$THICKNESS
 40
0.0
  9
$LIMCHECK
 70
     0
  9
$BLIPMODE
 70
     0
  9
$CHAMFERA
 40
0.0
  9
$CHAMFERB
 40
0.0
  9
$SKPOLY
 70
     0
  9
$TDCREATE
 40
2449960.615386111
  9
$TDUPDATE
 40
2450722.737800000
  9
$TDINDWG
 40
0.0023445602
  9
$TDUSRTIMER
 40
0.0023445602
  9
$USRTIMER
 70
     1
  9
$ANGBASE
 50
0.0
  9
$ANGDIR
 70
     0
  9
$PDMODE
 70
     0
  9
$PDSIZE
 40
0.0
  9
$PLINEWID
 40
0.0
  9
$COORDS
 70
     2
  9
$SPLFRAME
 70
     0
  9
$SPLINETYPE
 70
     6
  9
$SPLINESEGS
 70
     8
  9
$ATTDIA
 70
     0
  9
$ATTREQ
 70
     1
  9
$HANDLING
 70
     0
  9
$HANDSEED
  5
0
  9
$SURFTAB1
 70
     6
  9
$SURFTAB2
 70
     6
  9
$SURFTYPE
 70
     6
  9
$SURFU
 70
     6
  9
$SURFV
 70
     6
  9
$UCSNAME
  2

  9
$UCSORG
 10
0.0
 20
0.0
 30
0.0
  9
$UCSXDIR
 10
1.0
 20
0.0
 30
0.0
  9
$UCSYDIR
 10
0.0
 20
1.0
 30
0.0
  9
$PUCSNAME
  2

  9
$PUCSORG
 10
0.0
 20
0.0
 30
0.0
  9
$PUCSXDIR
 10
1.0
 20
0.0
 30
0.0
  9
$PUCSYDIR
 10
0.0
 20
1.0
 30
0.0
  9
$USERI1
 70
     0
  9
$USERI2
 70
     0
  9
$USERI3
 70
     0
  9
$USERI4
 70
     0
  9
$USERI5
 70
     0
  9
$USERR1
 40
0.0
  9
$USERR2
 40
0.0
  9
$USERR3
 40
0.0
  9
$USERR4
 40
0.0
  9
$USERR5
 40
0.0
  9
$WORLDVIEW
 70
     1
  9
$SHADEDGE
 70
     3
  9
$SHADEDIF
 70
    70
  9
$TILEMODE
 70
     1
  9
$MAXACTVP
 70
    16
  9
$PINSBASE
 10
0.0
 20
0.0
 30
0.0
  9
$PLIMCHECK
 70
     0
  9
$PEXTMIN
 10
1.000000E+20
 20
1.000000E+20
 30
1.000000E+20
  9
$PEXTMAX
 10
-1.000000E+20
 20
-1.000000E+20
 30
-1.000000E+20
  9
$PLIMMIN
 10
0.0
 20
0.0
  9
$PLIMMAX
 10
12.0
 20
9.0
  9
$UNITMODE
 70
     0
  9
$VISRETAIN
 70
     0
  9
$PLINEGEN
 70
     0
  9
$PSLTSCALE
 70
     0
  9
$TREEDEPTH
 70
  3020
  9
$DWGCODEPAGE
  3
iso8859-1
  0
ENDSEC
  0
SECTION
  2
TABLES
  0
TABLE
  2
VPORT
 70
     1
  0
VPORT
  2
*ACTIVE
 70
     0
 10
0.0
 20
0.0
 11
1.0
 21
1.0
 12
218.018594
 22
223.576256
 13
0.0
 23
0.0
 14
1.0
 24
1.0
 15
10.0
 25
10.0
 16
0.0
 26
0.0
 36
1.0
 17
0.0
 27
0.0
 37
0.0
 40
14.85
 41
1.611024
 42
50.0
 43
0.0
 44
0.0
 50
0.0
 51
0.0
 71
     0
 72
   100
 73
     1
 74
     0
 75
     0
 76
     0
 77
     0
 78
     0
  0
ENDTAB
  0
TABLE
  2
LTYPE
 70
     1
  0
LTYPE
  2
CONTINUOUS
 70
    64
  3
Solid Line
 72
    65
 73
     0
 40
0.0
  0
ENDTAB
  0
TABLE
  2
LAYER
 70
     5
  0
LAYER
  2
0
 70
    64
 62
     7
  6
CONTINUOUS
  0
LAYER
  2
SECCIO
 70
    64
 62
     7
  6
CONTINUOUS
  0
LAYER
  2
MESURA
 70
    64
 62
     7
  6
CONTINUOUS
  0
LAYER
  2
TEXTEP
 70
    64
 62
     7
  6
CONTINUOUS
  0
LAYER
  2
TEXTEG
 70
    64
 62
     7
  6
CONTINUOUS
  0
ENDTAB
  0
TABLE
  2
STYLE
 70
     2
  0
STYLE
  2
STANDARD
 70
    64
 40
0.0
 41
1.0
 50
0.0
 71
     0
 42
0.1
  3
txt
  4

  0
STYLE
  2
ROMANC
 70
    64
 40
0.0
 41
1.0
 50
0.0
 71
     0
 42
0.1
  3
romanc
  4

  0
ENDTAB
  0
TABLE
  2
VIEW
 70
     0
  0
ENDTAB
  0
TABLE
  2
UCS
 70
     0
  0
ENDTAB
  0
TABLE
  2
APPID
 70
     1
  0
APPID
  2
ACAD
 70
    64
  0
ENDTAB
  0
TABLE
  2
DIMSTYLE
 70
     0
  0
ENDTAB
  0
ENDSEC
  0
SECTION
  2
BLOCKS
  0
ENDSEC
  0
SECTION
  2
ENTITIES
  0
LINE
  8
SECCIO
 10
213.993536
 20
222.839931
 30
0.0
 11
213.993536
 21
220.77035
 31
0.0
  0
LINE
  8
0
 10
206.056744
 20
231.001256
 30
0.0
 11
206.056744
 21
216.151256
 31
0.0
  0
LINE
  8
0
 10
216.556744
 20
231.001256
 30
0.0
 11
216.556744
 21
216.151256
 31
0.0
  0
LINE
  8
SECCIO
 10
208.921709
 20
220.365191
 30
0.0
 11
213.605811
 21
220.365191
 31
0.0
  0
LINE
  8
0
 10
206.056744
 20
216.151256
 30
0.0
 11
216.556744
 21
216.151256
 31
0.0
  0
LINE
  8
MESURA
 10
208.993536
 20
220.865191
 30
0.0
 11
208.993536
 21
220.284043
 31
0.0
  0
LINE
  8
MESURA
 10
208.947172
 20
220.330162
 30
0.0
 11
209.030562
 21
220.390772
 31
0.0
  0
LINE
  8
MESURA
 10
213.443711
 20
220.331747
 30
0.0
 11
213.527101
 21
220.392357
 31
0.0
  0
LINE
  8
MESURA
 10
213.493536
 20
220.865191
 30
0.0
 11
213.493536
 21
220.267244
 31
0.0
  0
TEXT
  8
MESURA
 10
214.054845
 20
221.606439
 30
0.0
 40
0.1
  1
1.6
  0
LINE
  8
MESURA
 10
213.493536
 20
220.865191
 30
0.0
 11
214.495913
 21
220.865191
 31
0.0
  0
LINE
  8
MESURA
 10
213.957854
 20
220.837529
 30
0.0
 11
214.041244
 21
220.898139
 31
0.0
  0
TEXT
  8
TEXTEP
 10
211.106942
 20
220.183874
 30
0.0
 40
0.1
  1
4.5
  0
TEXT
  8
0
 10
208.017936
 20
227.244137
 30
0.0
 40
0.3
  1
P = 123.7 dm
  7
ROMANC
  0
TEXT
  8
0
 10
208.020764
 20
227.917636
 30
0.0
 40
0.3
  1
S = 840  dm
  7
ROMANC
  0
LINE
  8
0
 10
206.056744
 20
231.001256
 30
0.0
 11
216.556744
 21
231.001256
 31
0.0
  0
TEXT
  8
TEXTEP
 10
213.114639
 20
223.002941
 30
0.0
 40
0.1
  1
0.5
  0
TEXT
  8
TEXTEP
 10
214.042364
 20
222.534788
 30
0.0
 40
0.1
  1
0.3
  0
LINE
  8
MESURA
 10
212.993536
 20
222.765191
 30
0.0
 11
212.993536
 21
223.049503
 31
0.0
  0
LINE
  8
MESURA
 10
213.493536
 20
222.465191
 30
0.0
 11
213.493536
 21
223.049503
 31
0.0
  0
LINE
  8
MESURA
 10
212.993536
 20
222.765191
 30
0.0
 11
214.495913
 21
222.765191
 31
0.0
  0
LINE
  8
MESURA
 10
213.493536
 20
222.465191
 30
0.0
 11
214.077153
 21
222.465191
 31
0.0
  0
LINE
  8
MESURA
 10
212.948253
 20
222.936039
 30
0.0
 11
213.031643
 21
222.996649
 31
0.0
  0
LINE
  8
MESURA
 10
213.950793
 20
222.434383
 30
0.0
 11
214.034183
 21
222.494993
 31
0.0
  0
LINE
  8
MESURA
 10
213.952783
 20
222.733433
 30
0.0
 11
214.036173
 21
222.794043
 31
0.0
  0
LINE
  8
MESURA
 10
213.449994
 20
222.932495
 30
0.0
 11
213.533384
 21
222.993105
 31
0.0
  0
LINE
  8
SECCIO
 10
212.89622
 20
222.967372
 30
0.0
 11
213.569952
 21
222.967372
 31
0.0
  0
TEXT
  8
0
 10
211.528595
 20
228.223552
 30
0.0
 40
0.1
  1
2
  7
ROMANC
  0
LINE
  8
SECCIO
 10
214.495913
 20
222.839931
 30
0.0
 11
214.495913
 21
220.77035
 31
0.0
  0
LINE
  8
MESURA
 10
214.45729
 20
220.837529
 30
0.0
 11
214.54068
 21
220.898139
 31
0.0
  0
LINE
  8
MESURA
 10
214.452218
 20
222.733433
 30
0.0
 11
214.535608
 21
222.794043
 31
0.0
  0
TEXT
  8
MESURA
 10
214.552668
 20
221.828549
 30
0.0
 40
0.1
  1
1.9
  0
LINE
  8
SECCIO
 10
209.496306
 20
222.755191
 30
0.0
 11
212.990766
 21
222.755191
 31
0.0
  0
LINE
  8
SECCIO
 10
212.990766
 20
222.755191
 30
0.0
 11
213.483536
 21
222.459529
 31
0.0
  0
LINE
  8
SECCIO
 10
213.483536
 20
222.459529
 30
0.0
 11
213.483536
 21
220.875191
 31
0.0
  0
LINE
  8
SECCIO
 10
213.483536
 20
220.875191
 30
0.0
 11
209.003536
 21
220.875191
 31
0.0
  0
LINE
  8
SECCIO
 10
209.003536
 20
220.875191
 30
0.0
 11
209.003536
 21
222.459529
 31
0.0
  0
LINE
  8
SECCIO
 10
209.003536
 20
222.459529
 30
0.0
 11
209.496306
 21
222.755191
 31
0.0
  0
LINE
  8
SECCIO
 10
209.490766
 20
222.775191
 30
0.0
 11
212.996306
 21
222.775191
 31
0.0
  0
LINE
  8
SECCIO
 10
212.996306
 20
222.775191
 30
0.0
 11
213.503536
 21
222.470853
 31
0.0
  0
LINE
  8
SECCIO
 10
213.503536
 20
222.470853
 30
0.0
 11
213.503536
 21
220.855191
 31
0.0
  0
LINE
  8
SECCIO
 10
213.503536
 20
220.855191
 30
0.0
 11
208.983536
 21
220.855191
 31
0.0
  0
LINE
  8
SECCIO
 10
208.983536
 20
220.855191
 30
0.0
 11
208.983536
 21
222.470853
 31
0.0
  0
LINE
  8
SECCIO
 10
208.983536
 20
222.470853
 30
0.0
 11
209.490766
 21
222.775191
 31
0.0
  0
LINE
  8
SECCIO
 10
209.493536
 20
222.765191
 30
0.0
 11
212.993536
 21
222.765191
 31
0.0
  0
LINE
  8
SECCIO
 10
212.993536
 20
222.765191
 30
0.0
 11
213.493536
 21
222.465191
 31
0.0
  0
LINE
  8
SECCIO
 10
213.493536
 20
222.465191
 30
0.0
 11
213.493536
 21
220.865191
 31
0.0
  0
LINE
  8
SECCIO
 10
213.493536
 20
220.865191
 30
0.0
 11
208.993536
 21
220.865191
 31
0.0
  0
LINE
  8
SECCIO
 10
208.993536
 20
220.865191
 30
0.0
 11
208.993536
 21
222.465191
 31
0.0
  0
LINE
  8
SECCIO
 10
208.993536
 20
222.465191
 30
0.0
 11
209.493536
 21
222.765191
 31
0.0
  0
TEXT
  8
0
 10
208.020764
 20
229.199668
 30
0.0
 40
0.3
  1
TIPUS    NT840B
  7
ROMANC
  0
TEXT
  8
0
 10
208.017936
 20
228.52617
 30
0.0
 40
0.3
  1
ESCALA   1:50
  7
ROMANC
  0
ENDSEC
  0
EOF
