  0
SECTION
  2
HEADER
  9
$ACADVER
  1
AC1009
  9
$INSBASE
 10
167.876687
 20
29.454531
 30
0.0
  9
$EXTMIN
 10
167.876687
 20
29.454531
 30
0.0
  9
$EXTMAX
 10
178.376687
 20
44.304531
 30
0.0
  9
$LIMMIN
 10
0.0
 20
0.0
  9
$LIMMAX
 10
410.0
 20
287.0
  9
$ORTHOMODE
 70
     0
  9
$REGENMODE
 70
     1
  9
$FILLMODE
 70
     1
  9
$QTEXTMODE
 70
     0
  9
$MIRRTEXT
 70
     1
  9
$DRAGMODE
 70
     2
  9
$LTSCALE
 40
25.0
  9
$OSMODE
 70
    32
  9
$ATTMODE
 70
     1
  9
$TEXTSIZE
 40
0.1
  9
$TRACEWID
 40
1.0
  9
$TEXTSTYLE
  7
ROMANC
  9
$CLAYER
  8
0
  9
$CELTYPE
  6
BYLAYER
  9
$CECOLOR
 62
   256
  9
$DIMSCALE
 40
0.0
  9
$DIMASZ
 40
0.0
  9
$DIMEXO
 40
0.1
  9
$DIMDLI
 40
7.0
  9
$DIMRND
 40
0.0
  9
$DIMDLE
 40
0.0
  9
$DIMEXE
 40
1.8
  9
$DIMTP
 40
0.0
  9
$DIMTM
 40
0.0
  9
$DIMTXT
 40
0.03
  9
$DIMCEN
 40
1.5
  9
$DIMTSZ
 40
1.0
  9
$DIMTOL
 70
     0
  9
$DIMLIM
 70
     0
  9
$DIMTIH
 70
     0
  9
$DIMTOH
 70
     0
  9
$DIMSE1
 70
     0
  9
$DIMSE2
 70
     0
  9
$DIMTAD
 70
     0
  9
$DIMZIN
 70
     0
  9
$DIMBLK
  1

  9
$DIMASO
 70
     1
  9
$DIMSHO
 70
     0
  9
$DIMPOST
  1

  9
$DIMAPOST
  1

  9
$DIMALT
 70
     0
  9
$DIMALTD
 70
     2
  9
$DIMALTF
 40
25.4
  9
$DIMLFAC
 40
1.0
  9
$DIMTOFL
 70
     1
  9
$DIMTVP
 40
0.0
  9
$DIMTIX
 70
     1
  9
$DIMSOXD
 70
     0
  9
$DIMSAH
 70
     0
  9
$DIMBLK1
  1

  9
$DIMBLK2
  1

  9
$DIMSTYLE
  2
*UNNAMED
  9
$DIMCLRD
 70
     0
  9
$DIMCLRE
 70
     0
  9
$DIMCLRT
 70
     0
  9
$DIMTFAC
 40
116.666667
  9
$DIMGAP
 40
0.09
  9
$LUNITS
 70
     2
  9
$LUPREC
 70
     2
  9
$SKETCHINC
 40
1.0
  9
$FILLETRAD
 40
0.0
  9
$AUNITS
 70
     0
  9
$AUPREC
 70
     0
  9
$MENU
  1
acad
  9
$ELEVATION
 40
0.0
  9
$PELEVATION
 40
0.0
  9
$THICKNESS
 40
0.0
  9
$LIMCHECK
 70
     0
  9
$BLIPMODE
 70
     0
  9
$CHAMFERA
 40
0.0
  9
$CHAMFERB
 40
0.0
  9
$SKPOLY
 70
     0
  9
$TDCREATE
 40
2449967.352806597
  9
$TDUPDATE
 40
2450722.734955208
  9
$TDINDWG
 40
0.0043451389
  9
$TDUSRTIMER
 40
0.0043451389
  9
$USRTIMER
 70
     1
  9
$ANGBASE
 50
0.0
  9
$ANGDIR
 70
     0
  9
$PDMODE
 70
     0
  9
$PDSIZE
 40
0.0
  9
$PLINEWID
 40
0.0
  9
$COORDS
 70
     2
  9
$SPLFRAME
 70
     0
  9
$SPLINETYPE
 70
     6
  9
$SPLINESEGS
 70
     8
  9
$ATTDIA
 70
     0
  9
$ATTREQ
 70
     1
  9
$HANDLING
 70
     0
  9
$HANDSEED
  5
0
  9
$SURFTAB1
 70
     6
  9
$SURFTAB2
 70
     6
  9
$SURFTYPE
 70
     6
  9
$SURFU
 70
     6
  9
$SURFV
 70
     6
  9
$UCSNAME
  2

  9
$UCSORG
 10
0.0
 20
0.0
 30
0.0
  9
$UCSXDIR
 10
1.0
 20
0.0
 30
0.0
  9
$UCSYDIR
 10
0.0
 20
1.0
 30
0.0
  9
$PUCSNAME
  2

  9
$PUCSORG
 10
0.0
 20
0.0
 30
0.0
  9
$PUCSXDIR
 10
1.0
 20
0.0
 30
0.0
  9
$PUCSYDIR
 10
0.0
 20
1.0
 30
0.0
  9
$USERI1
 70
     0
  9
$USERI2
 70
     0
  9
$USERI3
 70
     0
  9
$USERI4
 70
     0
  9
$USERI5
 70
     0
  9
$USERR1
 40
0.0
  9
$USERR2
 40
0.0
  9
$USERR3
 40
0.0
  9
$USERR4
 40
0.0
  9
$USERR5
 40
0.0
  9
$WORLDVIEW
 70
     1
  9
$SHADEDGE
 70
     3
  9
$SHADEDIF
 70
    70
  9
$TILEMODE
 70
     1
  9
$MAXACTVP
 70
    16
  9
$PINSBASE
 10
0.0
 20
0.0
 30
0.0
  9
$PLIMCHECK
 70
     0
  9
$PEXTMIN
 10
1.000000E+20
 20
1.000000E+20
 30
1.000000E+20
  9
$PEXTMAX
 10
-1.000000E+20
 20
-1.000000E+20
 30
-1.000000E+20
  9
$PLIMMIN
 10
0.0
 20
0.0
  9
$PLIMMAX
 10
12.0
 20
9.0
  9
$UNITMODE
 70
     0
  9
$VISRETAIN
 70
     0
  9
$PLINEGEN
 70
     0
  9
$PSLTSCALE
 70
     0
  9
$TREEDEPTH
 70
  3020
  9
$DWGCODEPAGE
  3
iso8859-1
  0
ENDSEC
  0
SECTION
  2
TABLES
  0
TABLE
  2
VPORT
 70
     1
  0
VPORT
  2
*ACTIVE
 70
     0
 10
0.0
 20
0.0
 11
1.0
 21
1.0
 12
179.838537
 22
36.879531
 13
0.0
 23
0.0
 14
1.0
 24
1.0
 15
10.0
 25
10.0
 16
0.0
 26
0.0
 36
1.0
 17
0.0
 27
0.0
 37
0.0
 40
14.85
 41
1.611024
 42
50.0
 43
0.0
 44
0.0
 50
0.0
 51
0.0
 71
     0
 72
   100
 73
     1
 74
     0
 75
     0
 76
     0
 77
     0
 78
     2
  0
ENDTAB
  0
TABLE
  2
LTYPE
 70
     1
  0
LTYPE
  2
CONTINUOUS
 70
    64
  3
Solid line
 72
    65
 73
     0
 40
0.0
  0
ENDTAB
  0
TABLE
  2
LAYER
 70
     1
  0
LAYER
  2
0
 70
    64
 62
     7
  6
CONTINUOUS
  0
ENDTAB
  0
TABLE
  2
STYLE
 70
     2
  0
STYLE
  2
STANDARD
 70
     0
 40
0.0
 41
1.0
 50
0.0
 71
     0
 42
0.1
  3
txt
  4

  0
STYLE
  2
ROMANC
 70
    64
 40
0.0
 41
1.0
 50
0.0
 71
     0
 42
0.1
  3
romanc
  4

  0
ENDTAB
  0
TABLE
  2
VIEW
 70
     0
  0
ENDTAB
  0
TABLE
  2
UCS
 70
     0
  0
ENDTAB
  0
TABLE
  2
APPID
 70
     1
  0
APPID
  2
ACAD
 70
    64
  0
ENDTAB
  0
TABLE
  2
DIMSTYLE
 70
     0
  0
ENDTAB
  0
ENDSEC
  0
SECTION
  2
BLOCKS
  0
ENDSEC
  0
SECTION
  2
ENTITIES
  0
LINE
  8
0
 10
176.180566
 20
34.344607
 30
0.0
 11
176.186145
 21
36.686723
 31
0.0
  0
LINE
  8
0
 10
178.376687
 20
29.454531
 30
0.0
 11
178.376687
 21
44.304531
 31
0.0
  0
LINE
  8
0
 10
167.876687
 20
44.304531
 30
0.0
 11
167.876687
 21
29.454531
 31
0.0
  0
LINE
  8
0
 10
171.25112
 20
33.757768
 30
0.0
 11
175.445868
 21
33.757768
 31
0.0
  0
LINE
  8
0
 10
167.876687
 20
29.454531
 30
0.0
 11
178.376687
 21
29.454531
 31
0.0
  0
LINE
  8
0
 10
172.603131
 20
33.843039
 30
0.0
 11
172.494533
 21
33.672497
 31
0.0
  0
LINE
  8
0
 10
172.546989
 20
34.33769
 30
0.0
 11
172.548832
 21
33.757768
 31
0.0
  0
LINE
  8
0
 10
171.25112
 20
34.827394
 30
0.0
 11
171.25112
 21
33.032995
 31
0.0
  0
LINE
  8
0
 10
171.307079
 20
33.843039
 30
0.0
 11
171.198482
 21
33.672497
 31
0.0
  0
TEXT
  8
0
 10
171.706204
 20
33.527251
 30
0.0
 40
0.1
  1
1.3
  7
ROMANC
  0
LINE
  8
0
 10
174.153425
 20
34.303899
 30
0.0
 11
174.153838
 21
33.757768
 31
0.0
  0
LINE
  8
0
 10
175.446989
 20
34.83769
 30
0.0
 11
175.445116
 21
33.032995
 31
0.0
  0
LINE
  8
0
 10
175.501208
 20
33.843039
 30
0.0
 11
175.39261
 21
33.672497
 31
0.0
  0
TEXT
  8
0
 10
174.627315
 20
33.527251
 30
0.0
 40
0.1
  1
1.3
  7
ROMANC
  0
TEXT
  8
0
 10
173.19886
 20
33.527251
 30
0.0
 40
0.1
  1
1.6
  7
ROMANC
  0
LINE
  8
0
 10
174.208137
 20
33.843039
 30
0.0
 11
174.09954
 21
33.672497
 31
0.0
  0
LINE
  8
0
 10
174.146989
 20
34.345395
 30
0.0
 11
176.930175
 21
34.344316
 31
0.0
  0
LINE
  8
0
 10
176.234865
 20
34.429878
 30
0.0
 11
176.126267
 21
34.259336
 31
0.0
  0
TEXT
  8
0
 10
177.101645
 20
35.4113
 30
0.0
 40
0.1
  1
2.3
  7
ROMANC
  0
TEXT
  8
0
 10
170.44028
 20
40.082372
 30
0.0
 40
0.3
  1
P = 126.2 dm
  7
ROMANC
  0
TEXT
  8
0
 10
170.406659
 20
41.414676
 30
0.0
 40
0.3
  1
ESCALA  1:50
  7
ROMANC
  0
TEXT
  8
0
 10
170.406659
 20
41.900391
 30
0.0
 40
0.3
  1
TIPUS   NT840A
  7
ROMANC
  0
TEXT
  8
0
 10
170.419753
 20
40.816087
 30
0.0
 40
0.3
  1
S =  840 dm
  7
ROMANC
  0
LINE
  8
0
 10
178.376687
 20
44.304531
 30
0.0
 11
167.876687
 21
44.304531
 31
0.0
  0
LINE
  8
0
 10
176.240443
 20
36.771994
 30
0.0
 11
176.131846
 21
36.601452
 31
0.0
  0
TEXT
  8
0
 10
173.942871
 20
41.129398
 30
0.0
 40
0.1
  1
2
  7
ROMANC
  0
LINE
  8
0
 10
171.25112
 20
33.032995
 30
0.0
 11
175.445116
 21
33.032995
 31
0.0
  0
LINE
  8
0
 10
176.930175
 20
36.681835
 30
0.0
 11
176.930175
 21
34.344316
 31
0.0
  0
LINE
  8
0
 10
175.501208
 20
33.120873
 30
0.0
 11
175.39261
 21
32.950331
 31
0.0
  0
LINE
  8
0
 10
171.307079
 20
33.120873
 30
0.0
 11
171.198482
 21
32.950331
 31
0.0
  0
LINE
  8
0
 10
176.978895
 20
34.419607
 30
0.0
 11
176.870298
 21
34.249065
 31
0.0
  0
LINE
  8
0
 10
176.984474
 20
36.761724
 30
0.0
 11
176.875877
 21
36.591182
 31
0.0
  0
LINE
  8
0
 10
175.446989
 20
34.83769
 30
0.0
 11
176.181736
 21
34.835939
 31
0.0
  0
TEXT
  8
0
 10
176.31083
 20
34.53505
 30
0.0
 40
0.1
  1
0.5
  7
ROMANC
  0
TEXT
  8
0
 10
176.250659
 20
35.462844
 30
0.0
 40
0.1
  1
1.5
  7
ROMANC
  0
TEXT
  8
0
 10
173.241838
 20
32.736908
 30
0.0
 40
0.1
  1
4.2
  7
ROMANC
  0
LINE
  8
0
 10
175.436989
 20
36.332484
 30
0.0
 11
176.185297
 21
36.330702
 31
0.0
  0
LINE
  8
0
 10
176.239595
 20
36.415973
 30
0.0
 11
176.130998
 21
36.24543
 31
0.0
  0
LINE
  8
0
 10
174.955498
 20
36.681835
 30
0.0
 11
176.930175
 21
36.681835
 31
0.0
  0
LINE
  8
0
 10
174.955498
 20
37.20807
 30
0.0
 11
175.456989
 21
37.20807
 31
0.0
  0
LINE
  8
0
 10
175.456989
 20
36.332436
 30
0.0
 11
175.456989
 21
37.20807
 31
0.0
  0
LINE
  8
0
 10
174.955498
 20
36.681835
 30
0.0
 11
174.955498
 21
37.20807
 31
0.0
  0
LINE
  8
0
 10
175.512331
 20
37.294979
 30
0.0
 11
175.403733
 21
37.124436
 31
0.0
  0
LINE
  8
0
 10
175.010839
 20
37.294979
 30
0.0
 11
174.902242
 21
37.124436
 31
0.0
  0
LINE
  8
0
 10
176.237078
 20
34.922848
 30
0.0
 11
176.12848
 21
34.752306
 31
0.0
  0
TEXT
  8
0
 10
176.250659
 20
36.459365
 30
0.0
 40
0.1
  1
0.3
  7
ROMANC
  0
TEXT
  8
0
 10
175.073032
 20
37.309843
 30
0.0
 40
0.1
  1
0.5
  7
ROMANC
  0
LINE
  8
0
 10
171.723546
 20
36.681835
 30
0.0
 11
174.955498
 21
36.681835
 31
0.0
  0
LINE
  8
0
 10
174.955498
 20
36.681835
 30
0.0
 11
175.446989
 21
36.33769
 31
0.0
  0
LINE
  8
0
 10
175.446989
 20
36.33769
 30
0.0
 11
175.446989
 21
34.83769
 31
0.0
  0
LINE
  8
0
 10
175.446989
 20
34.83769
 30
0.0
 11
174.146989
 21
34.83769
 31
0.0
  0
LINE
  8
0
 10
174.146989
 20
34.83769
 30
0.0
 11
174.146989
 21
34.33769
 31
0.0
  0
LINE
  8
0
 10
174.146989
 20
34.33769
 30
0.0
 11
172.546989
 21
34.33769
 31
0.0
  0
LINE
  8
0
 10
172.546989
 20
34.33769
 30
0.0
 11
172.546989
 21
34.83769
 31
0.0
  0
LINE
  8
0
 10
172.546989
 20
34.83769
 30
0.0
 11
171.246989
 21
34.83769
 31
0.0
  0
LINE
  8
0
 10
171.246989
 20
34.83769
 30
0.0
 11
171.246989
 21
36.344677
 31
0.0
  0
LINE
  8
0
 10
171.246989
 20
36.344677
 30
0.0
 11
171.723546
 21
36.681835
 31
0.0
  0
LINE
  8
0
 10
171.720367
 20
36.691835
 30
0.0
 11
174.958651
 21
36.691835
 31
0.0
  0
LINE
  8
0
 10
174.958651
 20
36.691835
 30
0.0
 11
175.456989
 21
36.342895
 31
0.0
  0
LINE
  8
0
 10
175.456989
 20
36.342895
 30
0.0
 11
175.456989
 21
34.82769
 31
0.0
  0
LINE
  8
0
 10
175.456989
 20
34.82769
 30
0.0
 11
174.156989
 21
34.82769
 31
0.0
  0
LINE
  8
0
 10
174.156989
 20
34.82769
 30
0.0
 11
174.156989
 21
34.32769
 31
0.0
  0
LINE
  8
0
 10
174.156989
 20
34.32769
 30
0.0
 11
172.536989
 21
34.32769
 31
0.0
  0
LINE
  8
0
 10
172.536989
 20
34.32769
 30
0.0
 11
172.536989
 21
34.82769
 31
0.0
  0
LINE
  8
0
 10
172.536989
 20
34.82769
 30
0.0
 11
171.236989
 21
34.82769
 31
0.0
  0
LINE
  8
0
 10
171.236989
 20
34.82769
 30
0.0
 11
171.236989
 21
36.349852
 31
0.0
  0
LINE
  8
0
 10
171.236989
 20
36.349852
 30
0.0
 11
171.720367
 21
36.691835
 31
0.0
  0
LINE
  8
0
 10
171.726726
 20
36.671835
 30
0.0
 11
174.952345
 21
36.671835
 31
0.0
  0
LINE
  8
0
 10
174.952345
 20
36.671835
 30
0.0
 11
175.436989
 21
36.332484
 31
0.0
  0
LINE
  8
0
 10
175.436989
 20
36.332484
 30
0.0
 11
175.436989
 21
34.84769
 31
0.0
  0
LINE
  8
0
 10
175.436989
 20
34.84769
 30
0.0
 11
174.136989
 21
34.84769
 31
0.0
  0
LINE
  8
0
 10
174.136989
 20
34.84769
 30
0.0
 11
174.136989
 21
34.34769
 31
0.0
  0
LINE
  8
0
 10
174.136989
 20
34.34769
 30
0.0
 11
172.556989
 21
34.34769
 31
0.0
  0
LINE
  8
0
 10
172.556989
 20
34.34769
 30
0.0
 11
172.556989
 21
34.84769
 31
0.0
  0
LINE
  8
0
 10
172.556989
 20
34.84769
 30
0.0
 11
171.256989
 21
34.84769
 31
0.0
  0
LINE
  8
0
 10
171.256989
 20
34.84769
 30
0.0
 11
171.256989
 21
36.339503
 31
0.0
  0
LINE
  8
0
 10
171.256989
 20
36.339503
 30
0.0
 11
171.726726
 21
36.671835
 31
0.0
  0
ENDSEC
  0
EOF
