  0
SECTION
  2
HEADER
  9
$ACADVER
  1
AC1009
  9
$INSBASE
 10
0.0
 20
0.0
 30
0.0
  9
$EXTMIN
 10
318.829805
 20
29.85788
 30
-0.001526
  9
$EXTMAX
 10
329.371339
 20
44.72551
 30
0.0
  9
$LIMMIN
 10
0.0
 20
0.0
  9
$LIMMAX
 10
410.0
 20
287.0
  9
$ORTHOMODE
 70
     1
  9
$REGENMODE
 70
     1
  9
$FILLMODE
 70
     1
  9
$QTEXTMODE
 70
     0
  9
$MIRRTEXT
 70
     1
  9
$DRAGMODE
 70
     2
  9
$LTSCALE
 40
25.0
  9
$OSMODE
 70
     0
  9
$ATTMODE
 70
     1
  9
$TEXTSIZE
 40
0.1
  9
$TRACEWID
 40
1.0
  9
$TEXTSTYLE
  7
ROMANC
  9
$CLAYER
  8
0
  9
$CELTYPE
  6
BYLAYER
  9
$CECOLOR
 62
   256
  9
$DIMSCALE
 40
1.5
  9
$DIMASZ
 40
0.1
  9
$DIMEXO
 40
0.01
  9
$DIMDLI
 40
7.0
  9
$DIMRND
 40
0.0
  9
$DIMDLE
 40
0.0
  9
$DIMEXE
 40
0.01
  9
$DIMTP
 40
0.0
  9
$DIMTM
 40
0.0
  9
$DIMTXT
 40
0.05
  9
$DIMCEN
 40
0.0
  9
$DIMTSZ
 40
0.0
  9
$DIMTOL
 70
     0
  9
$DIMLIM
 70
     0
  9
$DIMTIH
 70
     0
  9
$DIMTOH
 70
     0
  9
$DIMSE1
 70
     0
  9
$DIMSE2
 70
     0
  9
$DIMTAD
 70
     1
  9
$DIMZIN
 70
     0
  9
$DIMBLK
  1

  9
$DIMASO
 70
     1
  9
$DIMSHO
 70
     0
  9
$DIMPOST
  1

  9
$DIMAPOST
  1

  9
$DIMALT
 70
     0
  9
$DIMALTD
 70
     2
  9
$DIMALTF
 40
25.4
  9
$DIMLFAC
 40
1.0
  9
$DIMTOFL
 70
     1
  9
$DIMTVP
 40
0.0
  9
$DIMTIX
 70
     1
  9
$DIMSOXD
 70
     0
  9
$DIMSAH
 70
     0
  9
$DIMBLK1
  1

  9
$DIMBLK2
  1

  9
$DIMSTYLE
  2
MERITXELL
  9
$DIMCLRD
 70
     0
  9
$DIMCLRE
 70
     0
  9
$DIMCLRT
 70
     0
  9
$DIMTFAC
 40
70.0
  9
$DIMGAP
 40
0.025
  9
$LUNITS
 70
     2
  9
$LUPREC
 70
     2
  9
$SKETCHINC
 40
1.0
  9
$FILLETRAD
 40
0.0
  9
$AUNITS
 70
     0
  9
$AUPREC
 70
     0
  9
$MENU
  1
acad
  9
$ELEVATION
 40
0.0
  9
$PELEVATION
 40
0.0
  9
$THICKNESS
 40
0.0
  9
$LIMCHECK
 70
     0
  9
$BLIPMODE
 70
     0
  9
$CHAMFERA
 40
0.0
  9
$CHAMFERB
 40
0.0
  9
$SKPOLY
 70
     0
  9
$TDCREATE
 40
2450927.46195
  9
$TDUPDATE
 40
2451121.484025
  9
$TDINDWG
 40
0.072743
  9
$TDUSRTIMER
 40
0.072743
  9
$USRTIMER
 70
     1
  9
$ANGBASE
 50
0.0
  9
$ANGDIR
 70
     0
  9
$PDMODE
 70
     0
  9
$PDSIZE
 40
0.0
  9
$PLINEWID
 40
0.0
  9
$COORDS
 70
     2
  9
$SPLFRAME
 70
     0
  9
$SPLINETYPE
 70
     6
  9
$SPLINESEGS
 70
     8
  9
$ATTDIA
 70
     0
  9
$ATTREQ
 70
     1
  9
$HANDLING
 70
     1
  9
$HANDSEED
  5
32A
  9
$SURFTAB1
 70
     6
  9
$SURFTAB2
 70
     6
  9
$SURFTYPE
 70
     6
  9
$SURFU
 70
     6
  9
$SURFV
 70
     6
  9
$UCSNAME
  2

  9
$UCSORG
 10
0.0
 20
0.0
 30
0.0
  9
$UCSXDIR
 10
1.0
 20
0.0
 30
0.0
  9
$UCSYDIR
 10
0.0
 20
1.0
 30
0.0
  9
$PUCSNAME
  2

  9
$PUCSORG
 10
0.0
 20
0.0
 30
0.0
  9
$PUCSXDIR
 10
1.0
 20
0.0
 30
0.0
  9
$PUCSYDIR
 10
0.0
 20
1.0
 30
0.0
  9
$USERI1
 70
     0
  9
$USERI2
 70
     0
  9
$USERI3
 70
     0
  9
$USERI4
 70
     0
  9
$USERI5
 70
     0
  9
$USERR1
 40
0.0
  9
$USERR2
 40
0.0
  9
$USERR3
 40
0.0
  9
$USERR4
 40
0.0
  9
$USERR5
 40
0.0
  9
$WORLDVIEW
 70
     1
  9
$SHADEDGE
 70
     3
  9
$SHADEDIF
 70
    70
  9
$TILEMODE
 70
     1
  9
$MAXACTVP
 70
    16
  9
$PLIMCHECK
 70
     0
  9
$PEXTMIN
 10
1.000000E+020
 20
1.000000E+020
 30
1.000000E+020
  9
$PEXTMAX
 10
-1.000000E+020
 20
-1.000000E+020
 30
-1.000000E+020
  9
$PLIMMIN
 10
0.0
 20
0.0
  9
$PLIMMAX
 10
12.0
 20
9.0
  9
$UNITMODE
 70
     0
  9
$VISRETAIN
 70
     0
  9
$PLINEGEN
 70
     0
  9
$PSLTSCALE
 70
     0
  0
ENDSEC
  0
SECTION
  2
TABLES
  0
TABLE
  2
VPORT
 70
     3
  0
VPORT
  2
*ACTIVE
 70
     0
 10
0.0
 20
0.0
 11
1.0
 21
1.0
 12
324.100572
 22
37.291695
 13
0.0
 23
0.0
 14
1.0
 24
1.0
 15
10.0
 25
10.0
 16
0.0
 26
0.0
 36
1.0
 17
0.0
 27
0.0
 37
0.0
 40
15.002178
 41
1.732628
 42
50.0
 43
0.0
 44
0.0
 50
0.0
 51
0.0
 71
     0
 72
   100
 73
     1
 74
     0
 75
     0
 76
     0
 77
     0
 78
     1
  0
ENDTAB
  0
TABLE
  2
LTYPE
 70
     1
  0
LTYPE
  2
CONTINUOUS
 70
     0
  3
Solid line
 72
    65
 73
     0
 40
0.0
  0
ENDTAB
  0
TABLE
  2
LAYER
 70
     2
  0
LAYER
  2
0
 70
     0
 62
     7
  6
CONTINUOUS
  0
LAYER
  2
DEFPOINTS
 70
     0
 62
     7
  6
CONTINUOUS
  0
ENDTAB
  0
TABLE
  2
STYLE
 70
     2
  0
STYLE
  2
STANDARD
 70
     0
 40
0.0
 41
1.0
 50
0.0
 71
     0
 42
0.1
  3
txt
  4

  0
STYLE
  2
ROMANC
 70
     0
 40
0.0
 41
1.0
 50
0.0
 71
     0
 42
0.1
  3
romanc
  4

  0
ENDTAB
  0
TABLE
  2
VIEW
 70
     0
  0
ENDTAB
  0
TABLE
  2
UCS
 70
     0
  0
ENDTAB
  0
TABLE
  2
APPID
 70
     1
  0
APPID
  2
ACAD
 70
     0
  0
ENDTAB
  0
TABLE
  2
DIMSTYLE
 70
     1
  0
DIMSTYLE
  2
MERITXELL
 70
     0
  3

  4

  5

  6

  7

 40
1.5
 41
0.1
 42
0.01
 43
7.0
 44
0.01
 45
0.0
 46
0.0
 47
0.0
 48
0.0
140
0.05
141
0.1
142
0.0
143
25.4
144
1.0
145
0.0
146
70.0
147
0.09
 71
     0
 72
     0
 73
     0
 74
     0
 75
     0
 76
     0
 77
     1
 78
     0
170
     0
171
     2
172
     1
173
     0
174
     1
175
     0
176
     0
177
     0
178
     0
  0
ENDTAB
  0
ENDSEC
  0
SECTION
  2
BLOCKS
  0
BLOCK
  8
0
  2
$MODEL_SPACE
 70
     0
 10
0.0
 20
0.0
 30
0.0
  3
$MODEL_SPACE
  1

  0
ENDBLK
  5
24
  8
0
  0
BLOCK
 67
     1
  8
0
  2
$PAPER_SPACE
 70
     0
 10
0.0
 20
0.0
 30
0.0
  3
$PAPER_SPACE
  1

  0
ENDBLK
  5
22
 67
     1
  8
0
  0
BLOCK
  8
0
  2
*D0
 70
     1
 10
0.0
 20
0.0
 30
0.0
  3
*D0
  1

  0
LINE
  5
284
  8
0
  6
BYBLOCK
 62
     0
 10
324.235933
 20
37.356054
 30
0.0
 11
325.286768
 21
37.356054
 31
0.0
  0
LINE
  5
285
  8
0
  6
BYBLOCK
 62
     0
 10
324.235933
 20
33.506054
 30
0.0
 11
325.286768
 21
33.506054
 31
0.0
  0
LINE
  5
286
  8
0
  6
BYBLOCK
 62
     0
 10
325.271768
 20
37.206054
 30
0.0
 11
325.271768
 21
33.656054
 31
0.0
  0
SOLID
  5
287
  8
0
  6
BYBLOCK
 62
     0
 10
325.246768
 20
37.206054
 30
0.0
 11
325.296768
 21
37.206054
 31
0.0
 12
325.271768
 22
37.356054
 32
0.0
 13
325.271768
 23
37.356054
 33
0.0
  0
SOLID
  5
288
  8
0
  6
BYBLOCK
 62
     0
 10
325.246768
 20
33.656054
 30
0.0
 11
325.296768
 21
33.656054
 31
0.0
 12
325.271768
 22
33.506054
 32
0.0
 13
325.271768
 23
33.506054
 33
0.0
  0
TEXT
  8
0
  40
0.075
  5
31D
  62
0
  72
0
  71
0
 10
325.047
 20
35.2983
 30
0.000000
  1
3.85
  7
ROMANC
  0
POINT
  5
28A
  8
DEFPOINTS
  6
BYBLOCK
 62
     0
 10
324.220933
 20
37.356054
 30
0.0
  0
POINT
  5
28B
  8
DEFPOINTS
  6
BYBLOCK
 62
     0
 10
324.220933
 20
33.506054
 30
0.0
  0
POINT
  5
28C
  8
DEFPOINTS
  6
BYBLOCK
 62
     0
 10
325.271768
 20
33.506054
 30
0.0
  0
ENDBLK
  5
28D
  8
0
  0
BLOCK
  8
0
  2
*D1
 70
     1
 10
0.0
 20
0.0
 30
0.0
  3
*D1
  1

  0
LINE
  5
25C
  8
0
  6
BYBLOCK
 62
     0
 10
323.120933
 20
33.491054
 30
0.0
 11
323.120933
 21
33.077419
 31
0.0
  0
LINE
  5
25D
  8
0
  6
BYBLOCK
 62
     0
 10
324.220933
 20
33.491054
 30
0.0
 11
324.220933
 21
33.077419
 31
0.0
  0
LINE
  5
25E
  8
0
  6
BYBLOCK
 62
     0
 10
323.270933
 20
33.092419
 30
0.0
 11
324.070933
 21
33.092419
 31
0.0
  0
SOLID
  5
25F
  8
0
  6
BYBLOCK
 62
     0
 10
323.270933
 20
33.117419
 30
0.0
 11
323.270933
 21
33.067419
 31
0.0
 12
323.120933
 22
33.092419
 32
0.0
 13
323.120933
 23
33.092419
 33
0.0
  0
SOLID
  5
260
  8
0
  6
BYBLOCK
 62
     0
 10
324.070933
 20
33.117419
 30
0.0
 11
324.070933
 21
33.067419
 31
0.0
 12
324.220933
 22
33.092419
 32
0.0
 13
324.220933
 23
33.092419
 33
0.0
  0
TEXT
  8
0
  40
0.075
  5
31E
  62
0
  72
0
  71
0
 10
323.521
 20
33.0347
 30
0.000000
  1
1.10
  7
ROMANC
  0
POINT
  5
262
  8
DEFPOINTS
  6
BYBLOCK
 62
     0
 10
323.120933
 20
33.506054
 30
0.0
  0
POINT
  5
263
  8
DEFPOINTS
  6
BYBLOCK
 62
     0
 10
324.220933
 20
33.506054
 30
0.0
  0
POINT
  5
264
  8
DEFPOINTS
  6
BYBLOCK
 62
     0
 10
324.220933
 20
33.092419
 30
0.0
  0
ENDBLK
  5
265
  8
0
  0
BLOCK
  8
0
  2
*D2
 70
     1
 10
0.0
 20
0.0
 30
0.0
  3
*D2
  1

  0
LINE
  5
269
  8
0
  6
BYBLOCK
 62
     0
 10
322.020933
 20
33.791054
 30
0.0
 11
322.020933
 21
33.077419
 31
0.0
  0
LINE
  5
26A
  8
0
  6
BYBLOCK
 62
     0
 10
323.120933
 20
33.791054
 30
0.0
 11
323.120933
 21
33.077419
 31
0.0
  0
LINE
  5
26B
  8
0
  6
BYBLOCK
 62
     0
 10
322.170933
 20
33.092419
 30
0.0
 11
322.970933
 21
33.092419
 31
0.0
  0
SOLID
  5
26C
  8
0
  6
BYBLOCK
 62
     0
 10
322.170933
 20
33.117419
 30
0.0
 11
322.170933
 21
33.067419
 31
0.0
 12
322.020933
 22
33.092419
 32
0.0
 13
322.020933
 23
33.092419
 33
0.0
  0
SOLID
  5
26D
  8
0
  6
BYBLOCK
 62
     0
 10
322.970933
 20
33.117419
 30
0.0
 11
322.970933
 21
33.067419
 31
0.0
 12
323.120933
 22
33.092419
 32
0.0
 13
323.120933
 23
33.092419
 33
0.0
  0
TEXT
  8
0
  40
0.075
  5
31F
  62
0
  72
0
  71
0
 10
322.421
 20
33.0347
 30
0.000000
  1
1.10
  7
ROMANC
  0
POINT
  5
26F
  8
DEFPOINTS
  6
BYBLOCK
 62
     0
 10
322.020933
 20
33.806054
 30
0.0
  0
POINT
  5
270
  8
DEFPOINTS
  6
BYBLOCK
 62
     0
 10
323.120933
 20
33.806054
 30
0.0
  0
POINT
  5
271
  8
DEFPOINTS
  6
BYBLOCK
 62
     0
 10
323.120933
 20
33.092419
 30
0.0
  0
ENDBLK
  5
272
  8
0
  0
BLOCK
  8
0
  2
*D3
 70
     1
 10
0.0
 20
0.0
 30
0.0
  3
*D3
  1

  0
LINE
  5
29C
  8
0
  6
BYBLOCK
 62
     0
 10
323.105933
 20
33.806054
 30
0.0
 11
321.557747
 21
33.806054
 31
0.0
  0
LINE
  5
29D
  8
0
  6
BYBLOCK
 62
     0
 10
323.105933
 20
33.506054
 30
0.0
 11
321.557747
 21
33.506054
 31
0.0
  0
LINE
  5
29E
  8
0
  6
BYBLOCK
 62
     0
 10
321.572747
 20
33.956054
 30
0.0
 11
321.572747
 21
34.106054
 31
0.0
  0
LINE
  5
29F
  8
0
  6
BYBLOCK
 62
     0
 10
321.572747
 20
33.356054
 30
0.0
 11
321.572747
 21
33.206054
 31
0.0
  0
LINE
  5
2A0
  8
0
  6
BYBLOCK
 62
     0
 10
321.572747
 20
33.806054
 30
0.0
 11
321.572747
 21
33.506054
 31
0.0
  0
SOLID
  5
2A1
  8
0
  6
BYBLOCK
 62
     0
 10
321.547747
 20
33.956054
 30
0.0
 11
321.597747
 21
33.956054
 31
0.0
 12
321.572747
 22
33.806054
 32
0.0
 13
321.572747
 23
33.806054
 33
0.0
  0
SOLID
  5
2A2
  8
0
  6
BYBLOCK
 62
     0
 10
321.547747
 20
33.356054
 30
0.0
 11
321.597747
 21
33.356054
 31
0.0
 12
321.572747
 22
33.506054
 32
0.0
 13
321.572747
 23
33.506054
 33
0.0
  0
TEXT
  8
0
  40
0.075
  5
320
  62
0
  72
0
  71
0
 10
321.348
 20
33.5233
 30
0.000000
  1
0.30
  7
ROMANC
  0
POINT
  5
2A4
  8
DEFPOINTS
  6
BYBLOCK
 62
     0
 10
323.120933
 20
33.806054
 30
0.0
  0
POINT
  5
2A5
  8
DEFPOINTS
  6
BYBLOCK
 62
     0
 10
323.120933
 20
33.506054
 30
0.0
  0
POINT
  5
2A6
  8
DEFPOINTS
  6
BYBLOCK
 62
     0
 10
321.572747
 20
33.506054
 30
0.0
  0
ENDBLK
  5
2A7
  8
0
  0
BLOCK
  8
0
  2
*D4
 70
     1
 10
0.0
 20
0.0
 30
0.0
  3
*D4
  1

  0
LINE
  5
2AA
  8
0
  6
BYBLOCK
 62
     0
 10
322.005933
 20
37.356054
 30
0.0
 11
321.557747
 21
37.356054
 31
0.0
  0
LINE
  5
2AB
  8
0
  6
BYBLOCK
 62
     0
 10
322.005933
 20
33.806054
 30
0.0
 11
321.557747
 21
33.806054
 31
0.0
  0
LINE
  5
2AC
  8
0
  6
BYBLOCK
 62
     0
 10
321.572747
 20
37.206054
 30
0.0
 11
321.572747
 21
33.956054
 31
0.0
  0
SOLID
  5
2AD
  8
0
  6
BYBLOCK
 62
     0
 10
321.547747
 20
37.206054
 30
0.0
 11
321.597747
 21
37.206054
 31
0.0
 12
321.572747
 22
37.356054
 32
0.0
 13
321.572747
 23
37.356054
 33
0.0
  0
SOLID
  5
2AE
  8
0
  6
BYBLOCK
 62
     0
 10
321.547747
 20
33.956054
 30
0.0
 11
321.597747
 21
33.956054
 31
0.0
 12
321.572747
 22
33.806054
 32
0.0
 13
321.572747
 23
33.806054
 33
0.0
  0
TEXT
  8
0
  40
0.075
  5
321
  62
0
  72
0
  71
0
 10
321.348
 20
35.4483
 30
0.000000
  1
3.55
  7
ROMANC
  0
POINT
  5
2B0
  8
DEFPOINTS
  6
BYBLOCK
 62
     0
 10
322.020933
 20
37.356054
 30
0.0
  0
POINT
  5
2B1
  8
DEFPOINTS
  6
BYBLOCK
 62
     0
 10
322.020933
 20
33.806054
 30
0.0
  0
POINT
  5
2B2
  8
DEFPOINTS
  6
BYBLOCK
 62
     0
 10
321.572747
 20
33.806054
 30
0.0
  0
ENDBLK
  5
2B3
  8
0
  0
BLOCK
  8
0
  2
*D5
 70
     1
 10
0.0
 20
0.0
 30
0.0
  3
*D5
  1

  0
LINE
  5
2B7
  8
0
  6
BYBLOCK
 62
     0
 10
322.005933
 20
37.356054
 30
0.0
 11
321.078244
 21
37.356054
 31
0.0
  0
LINE
  5
2B8
  8
0
  6
BYBLOCK
 62
     0
 10
323.105933
 20
33.506054
 30
0.0
 11
321.078244
 21
33.506054
 31
0.0
  0
LINE
  5
2B9
  8
0
  6
BYBLOCK
 62
     0
 10
321.093244
 20
37.206054
 30
0.0
 11
321.093244
 21
33.656054
 31
0.0
  0
SOLID
  5
2BA
  8
0
  6
BYBLOCK
 62
     0
 10
321.068244
 20
37.206054
 30
0.0
 11
321.118244
 21
37.206054
 31
0.0
 12
321.093244
 22
37.356054
 32
0.0
 13
321.093244
 23
37.356054
 33
0.0
  0
SOLID
  5
2BB
  8
0
  6
BYBLOCK
 62
     0
 10
321.068244
 20
33.656054
 30
0.0
 11
321.118244
 21
33.656054
 31
0.0
 12
321.093244
 22
33.506054
 32
0.0
 13
321.093244
 23
33.506054
 33
0.0
  0
TEXT
  8
0
  40
0.075
  5
322
  62
0
  72
0
  71
0
 10
320.868
 20
35.2983
 30
0.000000
  1
3.85
  7
ROMANC
  0
POINT
  5
2BD
  8
DEFPOINTS
  6
BYBLOCK
 62
     0
 10
322.020933
 20
37.356054
 30
0.0
  0
POINT
  5
2BE
  8
DEFPOINTS
  6
BYBLOCK
 62
     0
 10
323.120933
 20
33.506054
 30
0.0
  0
POINT
  5
2BF
  8
DEFPOINTS
  6
BYBLOCK
 62
     0
 10
321.093244
 20
33.506054
 30
0.0
  0
ENDBLK
  5
2C0
  8
0
  0
BLOCK
  8
0
  2
*D6
 70
     1
 10
0.0
 20
0.0
 30
0.0
  3
*D6
  1

  0
LINE
  5
2C4
  8
0
  6
BYBLOCK
 62
     0
 10
323.017188
 20
33.791054
 30
0.0
 11
323.017188
 21
32.748404
 31
0.0
  0
LINE
  5
2C5
  8
0
  6
BYBLOCK
 62
     0
 10
325.217188
 20
33.476054
 30
0.0
 11
325.217188
 21
32.748404
 31
0.0
  0
LINE
  5
2C6
  8
0
  6
BYBLOCK
 62
     0
 10
323.167188
 20
32.763404
 30
0.0
 11
325.067188
 21
32.763404
 31
0.0
  0
SOLID
  5
2C7
  8
0
  6
BYBLOCK
 62
     0
 10
323.167188
 20
32.788404
 30
0.0
 11
323.167188
 21
32.738404
 31
0.0
 12
323.017188
 22
32.763404
 32
0.0
 13
323.017188
 23
32.763404
 33
0.0
  0
SOLID
  5
2C8
  8
0
  6
BYBLOCK
 62
     0
 10
325.067188
 20
32.788404
 30
0.0
 11
325.067188
 21
32.738404
 31
0.0
 12
325.217188
 22
32.763404
 32
0.0
 13
325.217188
 23
32.763404
 33
0.0
  0
TEXT
  8
0
  40
0.075
  5
323
  62
0
  72
0
  71
0
 10
323.967
 20
32.7057
 30
0.000000
  1
2.20
  7
ROMANC
  0
POINT
  5
2CA
  8
DEFPOINTS
  6
BYBLOCK
 62
     0
 10
323.017188
 20
33.806054
 30
0.0
  0
POINT
  5
2CB
  8
DEFPOINTS
  6
BYBLOCK
 62
     0
 10
325.217188
 20
33.491054
 30
0.0
  0
POINT
  5
2CC
  8
DEFPOINTS
  6
BYBLOCK
 62
     0
 10
325.217188
 20
32.763404
 30
0.0
  0
ENDBLK
  5
2CD
  8
0
  0
ENDSEC
  0
SECTION
  2
ENTITIES
  0
LINE
  5
27
  8
0
 10
329.348696
 20
29.863623
 30
0.0
 11
329.348696
 21
44.713623
 31
0.0
  0
LINE
  5
28
  8
0
 10
318.848696
 20
44.713623
 30
0.0
 11
318.848696
 21
29.863623
 31
0.0
  0
LINE
  5
29
  8
0
 10
318.848696
 20
29.863623
 30
0.0
 11
329.348696
 21
29.863623
 31
0.0
  0
TEXT
  5
2A
  8
0
 10
321.773149
 20
42.309482
 30
0.0
 40
0.3
  1
TIPUS   NT814
  7
ROMANC
  0
TEXT
  5
2D
  8
0
 10
321.735227
 20
40.527599
 30
0.0
 40
0.3
  1
P = 121 dm
  7
ROMANC
  0
TEXT
  5
2E
  8
0
 10
321.786243
 20
41.225178
 30
0.0
 40
0.3
  1
S = 814 dm
  7
ROMANC
  0
TEXT
  5
2F
  8
0
 10
321.773149
 20
41.823768
 30
0.0
 40
0.3
  1
ESCALA  1:50
  7
ROMANC
  0
TEXT
  5
30
  8
0
 10
324.991178
 20
41.531094
 30
0.0
 40
0.1
  1
2
  7
ROMANC
  0
LINE
  5
31
  8
0
 10
329.348696
 20
44.713623
 30
0.0
 11
318.848696
 21
44.713623
 31
0.0
  0
LINE
  5
2D2
  8
0
 10
323.027188
 20
33.816054
 30
0.0
 11
324.127188
 21
33.816054
 31
0.0
  0
LINE
  5
2D3
  8
0
 10
324.127188
 20
33.816054
 30
0.0
 11
324.127188
 21
33.516054
 31
0.0
  0
LINE
  5
2D4
  8
0
 10
324.127188
 20
33.516054
 30
0.0
 11
325.207188
 21
33.516054
 31
0.0
  0
LINE
  5
2D5
  8
0
 10
325.207188
 20
33.516054
 30
0.0
 11
325.207188
 21
37.346054
 31
0.0
  0
LINE
  5
2D6
  8
0
 10
325.207188
 20
37.346054
 30
0.0
 11
323.027188
 21
37.346054
 31
0.0
  0
LINE
  5
2D7
  8
0
 10
323.027188
 20
37.346054
 30
0.0
 11
323.027188
 21
33.816054
 31
0.0
  0
LINE
  5
2D8
  8
0
 10
323.007188
 20
33.796054
 30
0.0
 11
324.107188
 21
33.796054
 31
0.0
  0
LINE
  5
2D9
  8
0
 10
324.107188
 20
33.796054
 30
0.0
 11
324.107188
 21
33.496054
 31
0.0
  0
LINE
  5
2DA
  8
0
 10
324.107188
 20
33.496054
 30
0.0
 11
325.227188
 21
33.496054
 31
0.0
  0
LINE
  5
2DB
  8
0
 10
325.227188
 20
33.496054
 30
0.0
 11
325.227188
 21
37.366054
 31
0.0
  0
LINE
  5
2DC
  8
0
 10
325.227188
 20
37.366054
 30
0.0
 11
323.007188
 21
37.366054
 31
0.0
  0
LINE
  5
2DD
  8
0
 10
323.007188
 20
37.366054
 30
0.0
 11
323.007188
 21
33.796054
 31
0.0
  0
LINE
  5
2DE
  8
0
  6
BYBLOCK
 62
     0
 10
323.017188
 20
33.791054
 30
0.0
 11
323.017188
 21
32.748404
 31
0.0
  0
LINE
  5
2DF
  8
0
  6
BYBLOCK
 62
     0
 10
325.217188
 20
33.476054
 30
0.0
 11
325.217188
 21
32.748404
 31
0.0
  0
LINE
  5
2E0
  8
0
  6
BYBLOCK
 62
     0
 10
323.167188
 20
32.763404
 30
0.0
 11
325.067188
 21
32.763404
 31
0.0
  0
SOLID
  5
2E1
  8
0
  6
BYBLOCK
 62
     0
 10
323.167188
 20
32.788404
 30
0.0
 11
323.167188
 21
32.738404
 31
0.0
 12
323.017188
 22
32.763404
 32
0.0
 13
323.017188
 23
32.763404
 33
0.0
  0
SOLID
  5
2E2
  8
0
  6
BYBLOCK
 62
     0
 10
325.067188
 20
32.788404
 30
0.0
 11
325.067188
 21
32.738404
 31
0.0
 12
325.217188
 22
32.763404
 32
0.0
 13
325.217188
 23
32.763404
 33
0.0
  0
TEXT
  8
0
  40
0.075
  5
324
  62
0
  72
0
  71
0
 10
323.967
 20
32.7057
 30
0.000000
  1
2.20
  7
ROMANC
  0
POINT
  5
2E4
  8
DEFPOINTS
  6
BYBLOCK
 62
     0
 10
323.017188
 20
33.806054
 30
0.0
  0
POINT
  5
2E5
  8
DEFPOINTS
  6
BYBLOCK
 62
     0
 10
325.217188
 20
33.491054
 30
0.0
  0
POINT
  5
2E6
  8
DEFPOINTS
  6
BYBLOCK
 62
     0
 10
325.217188
 20
32.763404
 30
0.0
  0
LINE
  5
2E7
  8
0
  6
BYBLOCK
 62
     0
 10
323.002188
 20
37.356054
 30
0.0
 11
322.074499
 21
37.356054
 31
0.0
  0
LINE
  5
2E8
  8
0
  6
BYBLOCK
 62
     0
 10
324.102188
 20
33.506054
 30
0.0
 11
322.074499
 21
33.506054
 31
0.0
  0
LINE
  5
2E9
  8
0
  6
BYBLOCK
 62
     0
 10
322.089499
 20
37.206054
 30
0.0
 11
322.089499
 21
33.656054
 31
0.0
  0
SOLID
  5
2EA
  8
0
  6
BYBLOCK
 62
     0
 10
322.064499
 20
37.206054
 30
0.0
 11
322.114499
 21
37.206054
 31
0.0
 12
322.089499
 22
37.356054
 32
0.0
 13
322.089499
 23
37.356054
 33
0.0
  0
SOLID
  5
2EB
  8
0
  6
BYBLOCK
 62
     0
 10
322.064499
 20
33.656054
 30
0.0
 11
322.114499
 21
33.656054
 31
0.0
 12
322.089499
 22
33.506054
 32
0.0
 13
322.089499
 23
33.506054
 33
0.0
  0
TEXT
  8
0
  40
0.075
  5
325
  62
0
  72
0
  71
0
 10
321.864
 20
35.2983
 30
0.000000
  1
3.85
  7
ROMANC
  0
POINT
  5
2ED
  8
DEFPOINTS
  6
BYBLOCK
 62
     0
 10
323.017188
 20
37.356054
 30
0.0
  0
POINT
  5
2EE
  8
DEFPOINTS
  6
BYBLOCK
 62
     0
 10
324.117188
 20
33.506054
 30
0.0
  0
POINT
  5
2EF
  8
DEFPOINTS
  6
BYBLOCK
 62
     0
 10
322.089499
 20
33.506054
 30
0.0
  0
LINE
  5
2F0
  8
0
  6
BYBLOCK
 62
     0
 10
323.002188
 20
37.356054
 30
0.0
 11
322.554002
 21
37.356054
 31
0.0
  0
LINE
  5
2F1
  8
0
  6
BYBLOCK
 62
     0
 10
323.002188
 20
33.806054
 30
0.0
 11
322.554002
 21
33.806054
 31
0.0
  0
LINE
  5
2F2
  8
0
  6
BYBLOCK
 62
     0
 10
322.569002
 20
37.206054
 30
0.0
 11
322.569002
 21
33.956054
 31
0.0
  0
SOLID
  5
2F3
  8
0
  6
BYBLOCK
 62
     0
 10
322.544002
 20
37.206054
 30
0.0
 11
322.594002
 21
37.206054
 31
0.0
 12
322.569002
 22
37.356054
 32
0.0
 13
322.569002
 23
37.356054
 33
0.0
  0
SOLID
  5
2F4
  8
0
  6
BYBLOCK
 62
     0
 10
322.544002
 20
33.956054
 30
0.0
 11
322.594002
 21
33.956054
 31
0.0
 12
322.569002
 22
33.806054
 32
0.0
 13
322.569002
 23
33.806054
 33
0.0
  0
TEXT
  8
0
  40
0.075
  5
326
  62
0
  72
0
  71
0
 10
322.344
 20
35.4483
 30
0.000000
  1
3.55
  7
ROMANC
  0
POINT
  5
2F6
  8
DEFPOINTS
  6
BYBLOCK
 62
     0
 10
323.017188
 20
37.356054
 30
0.0
  0
POINT
  5
2F7
  8
DEFPOINTS
  6
BYBLOCK
 62
     0
 10
323.017188
 20
33.806054
 30
0.0
  0
POINT
  5
2F8
  8
DEFPOINTS
  6
BYBLOCK
 62
     0
 10
322.569002
 20
33.806054
 30
0.0
  0
LINE
  5
2F9
  8
0
  6
BYBLOCK
 62
     0
 10
324.102188
 20
33.806054
 30
0.0
 11
322.554002
 21
33.806054
 31
0.0
  0
LINE
  5
2FA
  8
0
  6
BYBLOCK
 62
     0
 10
324.102188
 20
33.506054
 30
0.0
 11
322.554002
 21
33.506054
 31
0.0
  0
LINE
  5
2FB
  8
0
  6
BYBLOCK
 62
     0
 10
322.569002
 20
33.956054
 30
0.0
 11
322.569002
 21
34.106054
 31
0.0
  0
LINE
  5
2FC
  8
0
  6
BYBLOCK
 62
     0
 10
322.569002
 20
33.356054
 30
0.0
 11
322.569002
 21
33.206054
 31
0.0
  0
LINE
  5
2FD
  8
0
  6
BYBLOCK
 62
     0
 10
322.569002
 20
33.806054
 30
0.0
 11
322.569002
 21
33.506054
 31
0.0
  0
SOLID
  5
2FE
  8
0
  6
BYBLOCK
 62
     0
 10
322.544002
 20
33.956054
 30
0.0
 11
322.594002
 21
33.956054
 31
0.0
 12
322.569002
 22
33.806054
 32
0.0
 13
322.569002
 23
33.806054
 33
0.0
  0
SOLID
  5
2FF
  8
0
  6
BYBLOCK
 62
     0
 10
322.544002
 20
33.356054
 30
0.0
 11
322.594002
 21
33.356054
 31
0.0
 12
322.569002
 22
33.506054
 32
0.0
 13
322.569002
 23
33.506054
 33
0.0
  0
TEXT
  8
0
  40
0.075
  5
327
  62
0
  72
0
  71
0
 10
322.344
 20
33.5233
 30
0.000000
  1
0.30
  7
ROMANC
  0
POINT
  5
301
  8
DEFPOINTS
  6
BYBLOCK
 62
     0
 10
324.117188
 20
33.806054
 30
0.0
  0
POINT
  5
302
  8
DEFPOINTS
  6
BYBLOCK
 62
     0
 10
324.117188
 20
33.506054
 30
0.0
  0
POINT
  5
303
  8
DEFPOINTS
  6
BYBLOCK
 62
     0
 10
322.569002
 20
33.506054
 30
0.0
  0
LINE
  5
304
  8
0
  6
BYBLOCK
 62
     0
 10
323.017188
 20
33.791054
 30
0.0
 11
323.017188
 21
33.077419
 31
0.0
  0
LINE
  5
305
  8
0
  6
BYBLOCK
 62
     0
 10
324.117188
 20
33.791054
 30
0.0
 11
324.117188
 21
33.077419
 31
0.0
  0
LINE
  5
306
  8
0
  6
BYBLOCK
 62
     0
 10
323.167188
 20
33.092419
 30
0.0
 11
323.967188
 21
33.092419
 31
0.0
  0
SOLID
  5
307
  8
0
  6
BYBLOCK
 62
     0
 10
323.167188
 20
33.117419
 30
0.0
 11
323.167188
 21
33.067419
 31
0.0
 12
323.017188
 22
33.092419
 32
0.0
 13
323.017188
 23
33.092419
 33
0.0
  0
SOLID
  5
308
  8
0
  6
BYBLOCK
 62
     0
 10
323.967188
 20
33.117419
 30
0.0
 11
323.967188
 21
33.067419
 31
0.0
 12
324.117188
 22
33.092419
 32
0.0
 13
324.117188
 23
33.092419
 33
0.0
  0
TEXT
  8
0
  40
0.075
  5
328
  62
0
  72
0
  71
0
 10
323.417
 20
33.0347
 30
0.000000
  1
1.10
  7
ROMANC
  0
POINT
  5
30A
  8
DEFPOINTS
  6
BYBLOCK
 62
     0
 10
323.017188
 20
33.806054
 30
0.0
  0
POINT
  5
30B
  8
DEFPOINTS
  6
BYBLOCK
 62
     0
 10
324.117188
 20
33.806054
 30
0.0
  0
POINT
  5
30C
  8
DEFPOINTS
  6
BYBLOCK
 62
     0
 10
324.117188
 20
33.092419
 30
0.0
  0
LINE
  5
30D
  8
0
  6
BYBLOCK
 62
     0
 10
324.117188
 20
33.491054
 30
0.0
 11
324.117188
 21
33.077419
 31
0.0
  0
LINE
  5
30E
  8
0
  6
BYBLOCK
 62
     0
 10
325.217188
 20
33.491054
 30
0.0
 11
325.217188
 21
33.077419
 31
0.0
  0
LINE
  5
30F
  8
0
  6
BYBLOCK
 62
     0
 10
324.267188
 20
33.092419
 30
0.0
 11
325.067188
 21
33.092419
 31
0.0
  0
SOLID
  5
310
  8
0
  6
BYBLOCK
 62
     0
 10
324.267188
 20
33.117419
 30
0.0
 11
324.267188
 21
33.067419
 31
0.0
 12
324.117188
 22
33.092419
 32
0.0
 13
324.117188
 23
33.092419
 33
0.0
  0
SOLID
  5
311
  8
0
  6
BYBLOCK
 62
     0
 10
325.067188
 20
33.117419
 30
0.0
 11
325.067188
 21
33.067419
 31
0.0
 12
325.217188
 22
33.092419
 32
0.0
 13
325.217188
 23
33.092419
 33
0.0
  0
TEXT
  8
0
  40
0.075
  5
329
  62
0
  72
0
  71
0
 10
324.517
 20
33.0347
 30
0.000000
  1
1.10
  7
ROMANC
  0
POINT
  5
313
  8
DEFPOINTS
  6
BYBLOCK
 62
     0
 10
324.117188
 20
33.506054
 30
0.0
  0
POINT
  5
314
  8
DEFPOINTS
  6
BYBLOCK
 62
     0
 10
325.217188
 20
33.506054
 30
0.0
  0
POINT
  5
315
  8
DEFPOINTS
  6
BYBLOCK
 62
     0
 10
325.217188
 20
33.092419
 30
0.0
  0
LINE
  5
316
  8
0
 10
323.017188
 20
33.806054
 30
0.0
 11
324.117188
 21
33.806054
 31
0.0
  0
LINE
  5
317
  8
0
 10
324.117188
 20
33.806054
 30
0.0
 11
324.117188
 21
33.506054
 31
0.0
  0
LINE
  5
318
  8
0
 10
324.117188
 20
33.506054
 30
0.0
 11
325.217188
 21
33.506054
 31
0.0
  0
LINE
  5
319
  8
0
 10
325.217188
 20
33.506054
 30
0.0
 11
325.217188
 21
37.356054
 31
0.0
  0
LINE
  5
31A
  8
0
 10
325.217188
 20
37.356054
 30
0.0
 11
323.017188
 21
37.356054
 31
0.0
  0
LINE
  5
31B
  8
0
 10
323.017188
 20
37.356054
 30
0.0
 11
323.017188
 21
33.806054
 31
0.0
  0
ENDSEC
  0
EOF
