  0
SECTION
  2
HEADER
  9
$ACADVER
  1
AC1009
  9
$INSBASE
 10
224.125118
 20
27.96352
 30
0.0
  9
$EXTMIN
 10
224.125118
 20
27.96352
 30
0.0
  9
$EXTMAX
 10
234.625118
 20
42.81352
 30
0.0
  9
$LIMMIN
 10
0.0
 20
0.0
  9
$LIMMAX
 10
410.0
 20
287.0
  9
$ORTHOMODE
 70
     0
  9
$REGENMODE
 70
     1
  9
$FILLMODE
 70
     1
  9
$QTEXTMODE
 70
     0
  9
$MIRRTEXT
 70
     1
  9
$DRAGMODE
 70
     2
  9
$LTSCALE
 40
25.0
  9
$OSMODE
 70
    32
  9
$ATTMODE
 70
     1
  9
$TEXTSIZE
 40
0.1
  9
$TRACEWID
 40
1.0
  9
$TEXTSTYLE
  7
ROMANC
  9
$CLAYER
  8
0
  9
$CELTYPE
  6
BYLAYER
  9
$CECOLOR
 62
   256
  9
$DIMSCALE
 40
0.0
  9
$DIMASZ
 40
0.0
  9
$DIMEXO
 40
0.1
  9
$DIMDLI
 40
7.0
  9
$DIMRND
 40
0.0
  9
$DIMDLE
 40
0.0
  9
$DIMEXE
 40
1.8
  9
$DIMTP
 40
0.0
  9
$DIMTM
 40
0.0
  9
$DIMTXT
 40
0.03
  9
$DIMCEN
 40
1.5
  9
$DIMTSZ
 40
1.0
  9
$DIMTOL
 70
     0
  9
$DIMLIM
 70
     0
  9
$DIMTIH
 70
     0
  9
$DIMTOH
 70
     0
  9
$DIMSE1
 70
     0
  9
$DIMSE2
 70
     0
  9
$DIMTAD
 70
     0
  9
$DIMZIN
 70
     0
  9
$DIMBLK
  1

  9
$DIMASO
 70
     1
  9
$DIMSHO
 70
     0
  9
$DIMPOST
  1

  9
$DIMAPOST
  1

  9
$DIMALT
 70
     0
  9
$DIMALTD
 70
     2
  9
$DIMALTF
 40
25.4
  9
$DIMLFAC
 40
1.0
  9
$DIMTOFL
 70
     1
  9
$DIMTVP
 40
0.0
  9
$DIMTIX
 70
     1
  9
$DIMSOXD
 70
     0
  9
$DIMSAH
 70
     0
  9
$DIMBLK1
  1

  9
$DIMBLK2
  1

  9
$DIMSTYLE
  2
*UNNAMED
  9
$DIMCLRD
 70
     0
  9
$DIMCLRE
 70
     0
  9
$DIMCLRT
 70
     0
  9
$DIMTFAC
 40
116.666667
  9
$DIMGAP
 40
0.09
  9
$LUNITS
 70
     2
  9
$LUPREC
 70
     2
  9
$SKETCHINC
 40
1.0
  9
$FILLETRAD
 40
0.0
  9
$AUNITS
 70
     0
  9
$AUPREC
 70
     0
  9
$MENU
  1
acad
  9
$ELEVATION
 40
0.0
  9
$PELEVATION
 40
0.0
  9
$THICKNESS
 40
0.0
  9
$LIMCHECK
 70
     0
  9
$BLIPMODE
 70
     0
  9
$CHAMFERA
 40
0.0
  9
$CHAMFERB
 40
0.0
  9
$SKPOLY
 70
     0
  9
$TDCREATE
 40
2449967.715125463
  9
$TDUPDATE
 40
2450722.718313541
  9
$TDINDWG
 40
0.0032974537
  9
$TDUSRTIMER
 40
0.0032974537
  9
$USRTIMER
 70
     1
  9
$ANGBASE
 50
0.0
  9
$ANGDIR
 70
     0
  9
$PDMODE
 70
     0
  9
$PDSIZE
 40
0.0
  9
$PLINEWID
 40
0.0
  9
$COORDS
 70
     0
  9
$SPLFRAME
 70
     0
  9
$SPLINETYPE
 70
     6
  9
$SPLINESEGS
 70
     8
  9
$ATTDIA
 70
     0
  9
$ATTREQ
 70
     1
  9
$HANDLING
 70
     0
  9
$HANDSEED
  5
0
  9
$SURFTAB1
 70
     6
  9
$SURFTAB2
 70
     6
  9
$SURFTYPE
 70
     6
  9
$SURFU
 70
     6
  9
$SURFV
 70
     6
  9
$UCSNAME
  2

  9
$UCSORG
 10
0.0
 20
0.0
 30
0.0
  9
$UCSXDIR
 10
1.0
 20
0.0
 30
0.0
  9
$UCSYDIR
 10
0.0
 20
1.0
 30
0.0
  9
$PUCSNAME
  2

  9
$PUCSORG
 10
0.0
 20
0.0
 30
0.0
  9
$PUCSXDIR
 10
1.0
 20
0.0
 30
0.0
  9
$PUCSYDIR
 10
0.0
 20
1.0
 30
0.0
  9
$USERI1
 70
     0
  9
$USERI2
 70
     0
  9
$USERI3
 70
     0
  9
$USERI4
 70
     0
  9
$USERI5
 70
     0
  9
$USERR1
 40
0.0
  9
$USERR2
 40
0.0
  9
$USERR3
 40
0.0
  9
$USERR4
 40
0.0
  9
$USERR5
 40
0.0
  9
$WORLDVIEW
 70
     1
  9
$SHADEDGE
 70
     3
  9
$SHADEDIF
 70
    70
  9
$TILEMODE
 70
     1
  9
$MAXACTVP
 70
    16
  9
$PINSBASE
 10
0.0
 20
0.0
 30
0.0
  9
$PLIMCHECK
 70
     0
  9
$PEXTMIN
 10
1.000000E+20
 20
1.000000E+20
 30
1.000000E+20
  9
$PEXTMAX
 10
-1.000000E+20
 20
-1.000000E+20
 30
-1.000000E+20
  9
$PLIMMIN
 10
0.0
 20
0.0
  9
$PLIMMAX
 10
12.0
 20
9.0
  9
$UNITMODE
 70
     0
  9
$VISRETAIN
 70
     0
  9
$PLINEGEN
 70
     0
  9
$PSLTSCALE
 70
     0
  9
$TREEDEPTH
 70
  3020
  9
$DWGCODEPAGE
  3
iso8859-1
  0
ENDSEC
  0
SECTION
  2
TABLES
  0
TABLE
  2
VPORT
 70
     1
  0
VPORT
  2
*ACTIVE
 70
     0
 10
0.0
 20
0.0
 11
1.0
 21
1.0
 12
236.086968
 22
35.38852
 13
0.0
 23
0.0
 14
1.0
 24
1.0
 15
10.0
 25
10.0
 16
0.0
 26
0.0
 36
1.0
 17
0.0
 27
0.0
 37
0.0
 40
14.85
 41
1.611024
 42
50.0
 43
0.0
 44
0.0
 50
0.0
 51
0.0
 71
     0
 72
   100
 73
     1
 74
     0
 75
     0
 76
     0
 77
     0
 78
     1
  0
ENDTAB
  0
TABLE
  2
LTYPE
 70
     1
  0
LTYPE
  2
CONTINUOUS
 70
    64
  3
Solid line
 72
    65
 73
     0
 40
0.0
  0
ENDTAB
  0
TABLE
  2
LAYER
 70
     1
  0
LAYER
  2
0
 70
    64
 62
     7
  6
CONTINUOUS
  0
ENDTAB
  0
TABLE
  2
STYLE
 70
     2
  0
STYLE
  2
STANDARD
 70
     0
 40
0.0
 41
1.0
 50
0.0
 71
     0
 42
0.1
  3
txt
  4

  0
STYLE
  2
ROMANC
 70
    64
 40
0.0
 41
1.0
 50
0.0
 71
     0
 42
0.1
  3
romanc
  4

  0
ENDTAB
  0
TABLE
  2
VIEW
 70
     0
  0
ENDTAB
  0
TABLE
  2
UCS
 70
     0
  0
ENDTAB
  0
TABLE
  2
APPID
 70
     1
  0
APPID
  2
ACAD
 70
    64
  0
ENDTAB
  0
TABLE
  2
DIMSTYLE
 70
     0
  0
ENDTAB
  0
ENDSEC
  0
SECTION
  2
BLOCKS
  0
ENDSEC
  0
SECTION
  2
ENTITIES
  0
LINE
  8
0
 10
234.625118
 20
27.96352
 30
0.0
 11
234.625118
 21
42.81352
 31
0.0
  0
LINE
  8
0
 10
224.125118
 20
42.81352
 30
0.0
 11
224.125118
 21
27.96352
 31
0.0
  0
LINE
  8
0
 10
224.125118
 20
27.96352
 30
0.0
 11
234.625118
 21
27.96352
 31
0.0
  0
LINE
  8
0
 10
227.002452
 20
32.008513
 30
0.0
 11
227.128615
 21
32.146977
 31
0.0
  0
LINE
  8
0
 10
230.547576
 20
32.052021
 30
0.0
 11
230.673739
 21
32.190485
 31
0.0
  0
TEXT
  8
0
 10
229.942929
 20
31.828025
 30
0.0
 40
0.1
  1
0.90
  7
ROMANC
  0
TEXT
  8
0
 10
228.183695
 20
31.828025
 30
0.0
 40
0.1
  1
2.60
  7
ROMANC
  0
LINE
  8
0
 10
229.639526
 20
32.033375
 30
0.0
 11
229.76569
 21
32.171839
 31
0.0
  0
TEXT
  8
0
 10
231.177948
 20
34.553953
 30
0.0
 40
0.1
  1
1.20
  7
ROMANC
  0
TEXT
  8
0
 10
231.177948
 20
33.479564
 30
0.0
 40
0.1
  1
1.00
  7
ROMANC
  0
TEXT
  8
0
 10
231.177948
 20
32.653795
 30
0.0
 40
0.1
  1
0.50
  7
ROMANC
  0
LINE
  8
0
 10
231.01404
 20
35.078955
 30
0.0
 11
231.140203
 21
35.217419
 31
0.0
  0
LINE
  8
0
 10
231.032178
 20
33.888227
 30
0.0
 11
231.158341
 21
34.026691
 31
0.0
  0
LINE
  8
0
 10
231.020259
 20
32.878679
 30
0.0
 11
231.146422
 21
33.017143
 31
0.0
  0
LINE
  8
0
 10
231.045137
 20
32.393872
 30
0.0
 11
231.1713
 21
32.532336
 31
0.0
  0
TEXT
  8
0
 10
226.655091
 20
39.923665
 30
0.0
 40
0.3
  1
ESCALA  1:50
  7
ROMANC
  0
TEXT
  8
0
 10
226.655091
 20
40.409379
 30
0.0
 40
0.3
  1
TIPUS   NT810
  7
ROMANC
  0
TEXT
  8
0
 10
226.668185
 20
39.325075
 30
0.0
 40
0.3
  1
S = 810 dm
  7
ROMANC
  0
TEXT
  8
0
 10
226.617168
 20
38.627496
 30
0.0
 40
0.3
  1
P = 112 dm
  7
ROMANC
  0
LINE
  8
0
 10
234.625118
 20
42.81352
 30
0.0
 11
224.125118
 21
42.81352
 31
0.0
  0
TEXT
  8
0
 10
229.851594
 20
39.630991
 30
0.0
 40
0.1
  1
2
  7
ROMANC
  0
LINE
  8
0
 10
231.729554
 20
35.16633
 30
0.0
 11
231.729554
 21
32.463527
 31
0.0
  0
LINE
  8
0
 10
227.095241
 20
31.540314
 30
0.0
 11
230.597886
 21
31.540314
 31
0.0
  0
LINE
  8
0
 10
228.861583
 20
35.16633
 30
0.0
 11
231.729554
 21
35.16633
 31
0.0
  0
LINE
  8
0
 10
231.100608
 20
35.16633
 30
0.0
 11
231.100608
 21
34.004036
 31
0.0
  0
LINE
  8
0
 10
231.099021
 20
33.960528
 30
0.0
 11
230.595241
 21
33.960528
 31
0.0
  0
LINE
  8
0
 10
227.095241
 20
32.460528
 30
0.0
 11
227.095241
 21
31.540314
 31
0.0
  0
LINE
  8
0
 10
227.095241
 20
32.108318
 30
0.0
 11
229.694998
 21
32.108318
 31
0.0
  0
LINE
  8
0
 10
229.694998
 20
32.108318
 30
0.0
 11
229.695241
 21
32.460528
 31
0.0
  0
ARC
  8
0
 10
229.75694
 20
33.960528
 30
0.0
 40
0.838301
 50
0.0
 51
31.134556
  0
ARC
  8
0
 10
229.319732
 20
33.696428
 30
0.0
 40
1.349084
 50
31.134556
 51
55.561011
  0
ARC
  8
0
 10
229.032981
 20
33.278249
 30
0.0
 40
1.856134
 50
55.561011
 51
74.143749
  0
ARC
  8
0
 10
228.845241
 20
32.617266
 30
0.0
 40
2.543262
 50
74.143749
 51
90.0
  0
ARC
  8
0
 10
228.845241
 20
32.617266
 30
0.0
 40
2.543262
 50
90.0
 51
105.856251
  0
ARC
  8
0
 10
228.6575
 20
33.278249
 30
0.0
 40
1.856134
 50
105.856251
 51
124.438989
  0
ARC
  8
0
 10
228.370749
 20
33.696428
 30
0.0
 40
1.349084
 50
124.438989
 51
148.865444
  0
ARC
  8
0
 10
227.933541
 20
33.960528
 30
0.0
 40
0.838301
 50
148.865444
 51
180.0
  0
LINE
  8
0
 10
227.095241
 20
33.960528
 30
0.0
 11
227.095241
 21
33.960528
 31
0.0
  0
LINE
  8
0
 10
227.095241
 20
33.960528
 30
0.0
 11
227.095241
 21
32.460528
 31
0.0
  0
LINE
  8
0
 10
227.095241
 20
32.460528
 30
0.0
 11
229.695241
 21
32.460528
 31
0.0
  0
LINE
  8
0
 10
229.695241
 20
32.460528
 30
0.0
 11
229.695241
 21
32.960528
 31
0.0
  0
LINE
  8
0
 10
229.695241
 20
32.960528
 30
0.0
 11
230.595241
 21
32.960528
 31
0.0
  0
LINE
  8
0
 10
230.595241
 20
32.960528
 30
0.0
 11
230.595241
 21
33.960528
 31
0.0
  0
ARC
  8
0
 10
229.75694
 20
33.960528
 30
0.0
 40
0.848301
 50
360.0
 51
31.134556
  0
ARC
  8
0
 10
229.319732
 20
33.696428
 30
0.0
 40
1.359084
 50
31.134556
 51
55.561011
  0
ARC
  8
0
 10
229.032981
 20
33.278249
 30
0.0
 40
1.866134
 50
55.561011
 51
74.143749
  0
ARC
  8
0
 10
228.845241
 20
32.617266
 30
0.0
 40
2.553262
 50
74.143749
 51
90.0
  0
ARC
  8
0
 10
228.845241
 20
32.617266
 30
0.0
 40
2.553262
 50
90.0
 51
105.856251
  0
ARC
  8
0
 10
228.6575
 20
33.278249
 30
0.0
 40
1.866134
 50
105.856251
 51
124.438989
  0
ARC
  8
0
 10
228.370749
 20
33.696428
 30
0.0
 40
1.359084
 50
124.438989
 51
148.865444
  0
ARC
  8
0
 10
227.933541
 20
33.960528
 30
0.0
 40
0.848301
 50
148.865444
 51
180.0
  0
LINE
  8
0
 10
227.085241
 20
33.960528
 30
0.0
 11
227.085241
 21
32.450528
 31
0.0
  0
LINE
  8
0
 10
227.085241
 20
32.450528
 30
0.0
 11
229.705241
 21
32.450528
 31
0.0
  0
LINE
  8
0
 10
229.705241
 20
32.450528
 30
0.0
 11
229.705241
 21
32.950528
 31
0.0
  0
LINE
  8
0
 10
229.705241
 20
32.950528
 30
0.0
 11
230.605241
 21
32.950528
 31
0.0
  0
LINE
  8
0
 10
230.605241
 20
32.950528
 30
0.0
 11
230.605241
 21
33.960528
 31
0.0
  0
ARC
  8
0
 10
229.75694
 20
33.960528
 30
0.0
 40
0.828301
 50
0.0
 51
31.134556
  0
ARC
  8
0
 10
229.319732
 20
33.696428
 30
0.0
 40
1.339084
 50
31.134556
 51
55.561011
  0
ARC
  8
0
 10
229.032981
 20
33.278249
 30
0.0
 40
1.846134
 50
55.561011
 51
74.143749
  0
ARC
  8
0
 10
228.845241
 20
32.617266
 30
0.0
 40
2.533262
 50
74.143749
 51
90.0
  0
ARC
  8
0
 10
228.845241
 20
32.617266
 30
0.0
 40
2.533262
 50
90.0
 51
105.856251
  0
ARC
  8
0
 10
228.6575
 20
33.278249
 30
0.0
 40
1.846134
 50
105.856251
 51
124.438989
  0
ARC
  8
0
 10
228.370749
 20
33.696428
 30
0.0
 40
1.339084
 50
124.438989
 51
148.865444
  0
ARC
  8
0
 10
227.933541
 20
33.960528
 30
0.0
 40
0.828301
 50
148.865444
 51
180.0
  0
LINE
  8
0
 10
227.105241
 20
33.960528
 30
0.0
 11
227.105241
 21
32.470528
 31
0.0
  0
LINE
  8
0
 10
227.105241
 20
32.470528
 30
0.0
 11
229.685241
 21
32.470528
 31
0.0
  0
LINE
  8
0
 10
229.685241
 20
32.470528
 30
0.0
 11
229.685241
 21
32.970528
 31
0.0
  0
LINE
  8
0
 10
229.685241
 20
32.970528
 30
0.0
 11
230.585241
 21
32.970528
 31
0.0
  0
LINE
  8
0
 10
230.585241
 20
32.970528
 30
0.0
 11
230.585241
 21
33.960528
 31
0.0
  0
LINE
  8
0
 10
231.100608
 20
34.004036
 30
0.0
 11
231.100608
 21
32.960339
 31
0.0
  0
LINE
  8
0
 10
231.100608
 20
32.960339
 30
0.0
 11
230.595241
 21
32.960528
 31
0.0
  0
LINE
  8
0
 10
231.100608
 20
32.960339
 30
0.0
 11
231.100608
 21
32.4626
 31
0.0
  0
LINE
  8
0
 10
231.729554
 20
32.463527
 30
0.0
 11
229.695241
 21
32.460528
 31
0.0
  0
LINE
  8
0
 10
229.694998
 20
32.108318
 30
0.0
 11
230.596828
 21
32.108318
 31
0.0
  0
LINE
  8
0
 10
230.597886
 20
31.540314
 30
0.0
 11
230.595241
 21
32.960528
 31
0.0
  0
LINE
  8
0
 10
230.548634
 20
31.484017
 30
0.0
 11
230.674797
 21
31.622481
 31
0.0
  0
LINE
  8
0
 10
227.00351
 20
31.440509
 30
0.0
 11
227.129673
 21
31.578973
 31
0.0
  0
LINE
  8
0
 10
231.681039
 20
32.393872
 30
0.0
 11
231.807202
 21
32.532336
 31
0.0
  0
LINE
  8
0
 10
231.649942
 20
35.078955
 30
0.0
 11
231.776105
 21
35.217419
 31
0.0
  0
TEXT
  8
0
 10
231.85333
 20
33.759434
 30
0.0
 40
0.1
  1
2.70
  7
ROMANC
  0
TEXT
  8
0
 10
228.719059
 20
31.292981
 30
0.0
 40
0.1
  1
3.50
  7
ROMANC
  0
ENDSEC
  0
EOF
