  0
SECTION
  2
HEADER
  9
$ACADVER
  1
AC1009
  9
$INSBASE
 10
0.0
 20
0.0
 30
0.0
  9
$EXTMIN
 10
318.829805
 20
29.85788
 30
-0.001526
  9
$EXTMAX
 10
329.371339
 20
44.72551
 30
0.0
  9
$LIMMIN
 10
0.0
 20
0.0
  9
$LIMMAX
 10
410.0
 20
287.0
  9
$ORTHOMODE
 70
     1
  9
$REGENMODE
 70
     1
  9
$FILLMODE
 70
     1
  9
$QTEXTMODE
 70
     0
  9
$MIRRTEXT
 70
     1
  9
$DRAGMODE
 70
     2
  9
$LTSCALE
 40
25.0
  9
$OSMODE
 70
     0
  9
$ATTMODE
 70
     1
  9
$TEXTSIZE
 40
0.1
  9
$TRACEWID
 40
1.0
  9
$TEXTSTYLE
  7
ROMANC
  9
$CLAYER
  8
0
  9
$CELTYPE
  6
BYLAYER
  9
$CECOLOR
 62
   256
  9
$DIMSCALE
 40
1.5
  9
$DIMASZ
 40
0.1
  9
$DIMEXO
 40
0.01
  9
$DIMDLI
 40
7.0
  9
$DIMRND
 40
0.0
  9
$DIMDLE
 40
0.0
  9
$DIMEXE
 40
0.01
  9
$DIMTP
 40
0.0
  9
$DIMTM
 40
0.0
  9
$DIMTXT
 40
0.05
  9
$DIMCEN
 40
0.0
  9
$DIMTSZ
 40
0.0
  9
$DIMTOL
 70
     0
  9
$DIMLIM
 70
     0
  9
$DIMTIH
 70
     0
  9
$DIMTOH
 70
     0
  9
$DIMSE1
 70
     0
  9
$DIMSE2
 70
     0
  9
$DIMTAD
 70
     1
  9
$DIMZIN
 70
     0
  9
$DIMBLK
  1

  9
$DIMASO
 70
     1
  9
$DIMSHO
 70
     0
  9
$DIMPOST
  1

  9
$DIMAPOST
  1

  9
$DIMALT
 70
     0
  9
$DIMALTD
 70
     2
  9
$DIMALTF
 40
25.4
  9
$DIMLFAC
 40
1.0
  9
$DIMTOFL
 70
     1
  9
$DIMTVP
 40
0.0
  9
$DIMTIX
 70
     1
  9
$DIMSOXD
 70
     0
  9
$DIMSAH
 70
     0
  9
$DIMBLK1
  1

  9
$DIMBLK2
  1

  9
$DIMSTYLE
  2
MERITXELL
  9
$DIMCLRD
 70
     0
  9
$DIMCLRE
 70
     0
  9
$DIMCLRT
 70
     0
  9
$DIMTFAC
 40
70.0
  9
$DIMGAP
 40
0.025
  9
$LUNITS
 70
     2
  9
$LUPREC
 70
     2
  9
$SKETCHINC
 40
1.0
  9
$FILLETRAD
 40
0.0
  9
$AUNITS
 70
     0
  9
$AUPREC
 70
     0
  9
$MENU
  1
acad
  9
$ELEVATION
 40
0.0
  9
$PELEVATION
 40
0.0
  9
$THICKNESS
 40
0.0
  9
$LIMCHECK
 70
     0
  9
$BLIPMODE
 70
     0
  9
$CHAMFERA
 40
0.0
  9
$CHAMFERB
 40
0.0
  9
$SKPOLY
 70
     0
  9
$TDCREATE
 40
2450927.46195
  9
$TDUPDATE
 40
2451134.419057
  9
$TDINDWG
 40
0.082491
  9
$TDUSRTIMER
 40
0.082491
  9
$USRTIMER
 70
     1
  9
$ANGBASE
 50
0.0
  9
$ANGDIR
 70
     0
  9
$PDMODE
 70
     0
  9
$PDSIZE
 40
0.0
  9
$PLINEWID
 40
0.0
  9
$COORDS
 70
     2
  9
$SPLFRAME
 70
     0
  9
$SPLINETYPE
 70
     6
  9
$SPLINESEGS
 70
     8
  9
$ATTDIA
 70
     0
  9
$ATTREQ
 70
     1
  9
$HANDLING
 70
     1
  9
$HANDSEED
  5
34B
  9
$SURFTAB1
 70
     6
  9
$SURFTAB2
 70
     6
  9
$SURFTYPE
 70
     6
  9
$SURFU
 70
     6
  9
$SURFV
 70
     6
  9
$UCSNAME
  2

  9
$UCSORG
 10
0.0
 20
0.0
 30
0.0
  9
$UCSXDIR
 10
1.0
 20
0.0
 30
0.0
  9
$UCSYDIR
 10
0.0
 20
1.0
 30
0.0
  9
$PUCSNAME
  2

  9
$PUCSORG
 10
0.0
 20
0.0
 30
0.0
  9
$PUCSXDIR
 10
1.0
 20
0.0
 30
0.0
  9
$PUCSYDIR
 10
0.0
 20
1.0
 30
0.0
  9
$USERI1
 70
     0
  9
$USERI2
 70
     0
  9
$USERI3
 70
     0
  9
$USERI4
 70
     0
  9
$USERI5
 70
     0
  9
$USERR1
 40
0.0
  9
$USERR2
 40
0.0
  9
$USERR3
 40
0.0
  9
$USERR4
 40
0.0
  9
$USERR5
 40
0.0
  9
$WORLDVIEW
 70
     1
  9
$SHADEDGE
 70
     3
  9
$SHADEDIF
 70
    70
  9
$TILEMODE
 70
     1
  9
$MAXACTVP
 70
    16
  9
$PLIMCHECK
 70
     0
  9
$PEXTMIN
 10
1.000000E+020
 20
1.000000E+020
 30
1.000000E+020
  9
$PEXTMAX
 10
-1.000000E+020
 20
-1.000000E+020
 30
-1.000000E+020
  9
$PLIMMIN
 10
0.0
 20
0.0
  9
$PLIMMAX
 10
12.0
 20
9.0
  9
$UNITMODE
 70
     0
  9
$VISRETAIN
 70
     0
  9
$PLINEGEN
 70
     0
  9
$PSLTSCALE
 70
     0
  0
ENDSEC
  0
SECTION
  2
TABLES
  0
TABLE
  2
VPORT
 70
     5
  0
VPORT
  2
*ACTIVE
 70
     0
 10
0.0
 20
0.0
 11
1.0
 21
1.0
 12
324.100572
 22
37.291695
 13
0.0
 23
0.0
 14
1.0
 24
1.0
 15
10.0
 25
10.0
 16
0.0
 26
0.0
 36
1.0
 17
0.0
 27
0.0
 37
0.0
 40
15.002178
 41
1.732628
 42
50.0
 43
0.0
 44
0.0
 50
0.0
 51
0.0
 71
     0
 72
   100
 73
     1
 74
     0
 75
     0
 76
     0
 77
     0
 78
     1
  0
ENDTAB
  0
TABLE
  2
LTYPE
 70
     1
  0
LTYPE
  2
CONTINUOUS
 70
     0
  3
Solid line
 72
    65
 73
     0
 40
0.0
  0
ENDTAB
  0
TABLE
  2
LAYER
 70
     2
  0
LAYER
  2
0
 70
     0
 62
     7
  6
CONTINUOUS
  0
LAYER
  2
DEFPOINTS
 70
     0
 62
     7
  6
CONTINUOUS
  0
ENDTAB
  0
TABLE
  2
STYLE
 70
     2
  0
STYLE
  2
STANDARD
 70
     0
 40
0.0
 41
1.0
 50
0.0
 71
     0
 42
0.1
  3
txt
  4

  0
STYLE
  2
ROMANC
 70
     0
 40
0.0
 41
1.0
 50
0.0
 71
     0
 42
0.1
  3
romanc
  4

  0
ENDTAB
  0
TABLE
  2
VIEW
 70
     0
  0
ENDTAB
  0
TABLE
  2
UCS
 70
     0
  0
ENDTAB
  0
TABLE
  2
APPID
 70
     1
  0
APPID
  2
ACAD
 70
     0
  0
ENDTAB
  0
TABLE
  2
DIMSTYLE
 70
     1
  0
DIMSTYLE
  2
MERITXELL
 70
     0
  3

  4

  5

  6

  7

 40
1.5
 41
0.1
 42
0.01
 43
7.0
 44
0.01
 45
0.0
 46
0.0
 47
0.0
 48
0.0
140
0.05
141
0.1
142
0.0
143
25.4
144
1.0
145
0.0
146
70.0
147
0.09
 71
     0
 72
     0
 73
     0
 74
     0
 75
     0
 76
     0
 77
     1
 78
     0
170
     0
171
     2
172
     1
173
     0
174
     1
175
     0
176
     0
177
     0
178
     0
  0
ENDTAB
  0
ENDSEC
  0
SECTION
  2
BLOCKS
  0
BLOCK
  8
0
  2
$MODEL_SPACE
 70
     0
 10
0.0
 20
0.0
 30
0.0
  3
$MODEL_SPACE
  1

  0
ENDBLK
  5
24
  8
0
  0
BLOCK
 67
     1
  8
0
  2
$PAPER_SPACE
 70
     0
 10
0.0
 20
0.0
 30
0.0
  3
$PAPER_SPACE
  1

  0
ENDBLK
  5
22
 67
     1
  8
0
  0
BLOCK
  8
0
  2
*D0
 70
     1
 10
0.0
 20
0.0
 30
0.0
  3
*D0
  1

  0
LINE
  5
25B
  8
0
  6
BYBLOCK
 62
     0
 10
324.873656
 20
33.906601
 30
0.0
 11
324.873656
 21
33.556635
 31
0.0
  0
LINE
  5
25C
  8
0
  6
BYBLOCK
 62
     0
 10
325.873656
 20
34.306601
 30
0.0
 11
325.873656
 21
33.556635
 31
0.0
  0
LINE
  5
25D
  8
0
  6
BYBLOCK
 62
     0
 10
325.023656
 20
33.571635
 30
0.0
 11
325.723656
 21
33.571635
 31
0.0
  0
SOLID
  5
25E
  8
0
  6
BYBLOCK
 62
     0
 10
325.023656
 20
33.596635
 30
0.0
 11
325.023656
 21
33.546635
 31
0.0
 12
324.873656
 22
33.571635
 32
0.0
 13
324.873656
 23
33.571635
 33
0.0
  0
SOLID
  5
25F
  8
0
  6
BYBLOCK
 62
     0
 10
325.723656
 20
33.596635
 30
0.0
 11
325.723656
 21
33.546635
 31
0.0
 12
325.873656
 22
33.571635
 32
0.0
 13
325.873656
 23
33.571635
 33
0.0
  0
TEXT
  8
0
  40
0.075
  5
33B
  62
0
  72
0
  71
0
 10
325.224
 20
33.5139
 30
0.000000
  1
1.00
  7
ROMANC
  0
POINT
  5
261
  8
DEFPOINTS
  6
BYBLOCK
 62
     0
 10
324.873656
 20
33.921601
 30
0.0
  0
POINT
  5
262
  8
DEFPOINTS
  6
BYBLOCK
 62
     0
 10
325.873656
 20
34.321601
 30
0.0
  0
POINT
  5
263
  8
DEFPOINTS
  6
BYBLOCK
 62
     0
 10
325.873656
 20
33.571635
 30
0.0
  0
ENDBLK
  5
264
  8
0
  0
BLOCK
  8
0
  2
*D1
 70
     1
 10
0.0
 20
0.0
 30
0.0
  3
*D1
  1

  0
LINE
  5
267
  8
0
  6
BYBLOCK
 62
     0
 10
324.873656
 20
33.906601
 30
0.0
 11
324.873656
 21
33.556635
 31
0.0
  0
LINE
  5
268
  8
0
  6
BYBLOCK
 62
     0
 10
321.873656
 20
33.906601
 30
0.0
 11
321.873656
 21
33.556635
 31
0.0
  0
LINE
  5
269
  8
0
  6
BYBLOCK
 62
     0
 10
324.723656
 20
33.571635
 30
0.0
 11
322.023656
 21
33.571635
 31
0.0
  0
SOLID
  5
26A
  8
0
  6
BYBLOCK
 62
     0
 10
324.723656
 20
33.596635
 30
0.0
 11
324.723656
 21
33.546635
 31
0.0
 12
324.873656
 22
33.571635
 32
0.0
 13
324.873656
 23
33.571635
 33
0.0
  0
SOLID
  5
26B
  8
0
  6
BYBLOCK
 62
     0
 10
322.023656
 20
33.596635
 30
0.0
 11
322.023656
 21
33.546635
 31
0.0
 12
321.873656
 22
33.571635
 32
0.0
 13
321.873656
 23
33.571635
 33
0.0
  0
TEXT
  8
0
  40
0.075
  5
33C
  62
0
  72
0
  71
0
 10
323.224
 20
33.5139
 30
0.000000
  1
3.00
  7
ROMANC
  0
POINT
  5
26D
  8
DEFPOINTS
  6
BYBLOCK
 62
     0
 10
324.873656
 20
33.921601
 30
0.0
  0
POINT
  5
26E
  8
DEFPOINTS
  6
BYBLOCK
 62
     0
 10
321.873656
 20
33.921601
 30
0.0
  0
POINT
  5
26F
  8
DEFPOINTS
  6
BYBLOCK
 62
     0
 10
321.873656
 20
33.571635
 30
0.0
  0
ENDBLK
  5
270
  8
0
  0
BLOCK
  8
0
  2
*D2
 70
     1
 10
0.0
 20
0.0
 30
0.0
  3
*D2
  1

  0
LINE
  5
274
  8
0
  6
BYBLOCK
 62
     0
 10
321.873656
 20
33.906601
 30
0.0
 11
321.873656
 21
33.285019
 31
0.0
  0
LINE
  5
275
  8
0
  6
BYBLOCK
 62
     0
 10
325.873656
 20
34.306601
 30
0.0
 11
325.873656
 21
33.285019
 31
0.0
  0
LINE
  5
276
  8
0
  6
BYBLOCK
 62
     0
 10
322.023656
 20
33.300019
 30
0.0
 11
325.723656
 21
33.300019
 31
0.0
  0
SOLID
  5
277
  8
0
  6
BYBLOCK
 62
     0
 10
322.023656
 20
33.325019
 30
0.0
 11
322.023656
 21
33.275019
 31
0.0
 12
321.873656
 22
33.300019
 32
0.0
 13
321.873656
 23
33.300019
 33
0.0
  0
SOLID
  5
278
  8
0
  6
BYBLOCK
 62
     0
 10
325.723656
 20
33.325019
 30
0.0
 11
325.723656
 21
33.275019
 31
0.0
 12
325.873656
 22
33.300019
 32
0.0
 13
325.873656
 23
33.300019
 33
0.0
  0
TEXT
  8
0
  40
0.075
  5
33D
  62
0
  72
0
  71
0
 10
323.724
 20
33.2423
 30
0.000000
  1
4.00
  7
ROMANC
  0
POINT
  5
27A
  8
DEFPOINTS
  6
BYBLOCK
 62
     0
 10
321.873656
 20
33.921601
 30
0.0
  0
POINT
  5
27B
  8
DEFPOINTS
  6
BYBLOCK
 62
     0
 10
325.873656
 20
34.321601
 30
0.0
  0
POINT
  5
27C
  8
DEFPOINTS
  6
BYBLOCK
 62
     0
 10
325.873656
 20
33.300019
 30
0.0
  0
ENDBLK
  5
27D
  8
0
  0
BLOCK
  8
0
  2
*D3
 70
     1
 10
0.0
 20
0.0
 30
0.0
  3
*D3
  1

  0
LINE
  5
28D
  8
0
  6
BYBLOCK
 62
     0
 10
325.888656
 20
34.321601
 30
0.0
 11
326.244073
 21
34.321601
 31
0.0
  0
LINE
  5
28E
  8
0
  6
BYBLOCK
 62
     0
 10
324.888656
 20
33.921601
 30
0.0
 11
326.244073
 21
33.921601
 31
0.0
  0
LINE
  5
28F
  8
0
  6
BYBLOCK
 62
     0
 10
326.229073
 20
34.171601
 30
0.0
 11
326.229073
 21
34.071601
 31
0.0
  0
SOLID
  5
290
  8
0
  6
BYBLOCK
 62
     0
 10
326.204073
 20
34.171601
 30
0.0
 11
326.254073
 21
34.171601
 31
0.0
 12
326.229073
 22
34.321601
 32
0.0
 13
326.229073
 23
34.321601
 33
0.0
  0
SOLID
  5
291
  8
0
  6
BYBLOCK
 62
     0
 10
326.204073
 20
34.071601
 30
0.0
 11
326.254073
 21
34.071601
 31
0.0
 12
326.229073
 22
33.921601
 32
0.0
 13
326.229073
 23
33.921601
 33
0.0
  0
TEXT
  8
0
  40
0.075
  5
33E
  62
0
  72
0
  71
0
 10
326.004
 20
33.9889
 30
0.000000
  1
0.40
  7
ROMANC
  0
POINT
  5
293
  8
DEFPOINTS
  6
BYBLOCK
 62
     0
 10
325.873656
 20
34.321601
 30
0.0
  0
POINT
  5
294
  8
DEFPOINTS
  6
BYBLOCK
 62
     0
 10
324.873656
 20
33.921601
 30
0.0
  0
POINT
  5
295
  8
DEFPOINTS
  6
BYBLOCK
 62
     0
 10
326.229073
 20
33.921601
 30
0.0
  0
ENDBLK
  5
296
  8
0
  0
BLOCK
  8
0
  2
*D4
 70
     1
 10
0.0
 20
0.0
 30
0.0
  3
*D4
  1

  0
LINE
  5
2A7
  8
0
  6
BYBLOCK
 62
     0
 10
325.888656
 20
34.521601
 30
0.0
 11
326.244073
 21
34.521601
 31
0.0
  0
LINE
  5
2A8
  8
0
  6
BYBLOCK
 62
     0
 10
325.888656
 20
34.321601
 30
0.0
 11
326.244073
 21
34.321601
 31
0.0
  0
LINE
  5
2A9
  8
0
  6
BYBLOCK
 62
     0
 10
326.229073
 20
34.671601
 30
0.0
 11
326.229073
 21
34.821601
 31
0.0
  0
LINE
  5
2AA
  8
0
  6
BYBLOCK
 62
     0
 10
326.229073
 20
34.171601
 30
0.0
 11
326.229073
 21
34.021601
 31
0.0
  0
TEXT
  8
0
  40
0.075
  5
33F
  62
0
  72
0
  71
0
 10
326.004
 20
34.5306
 30
0.000000
  1
0.20
  7
ROMANC
  0
LINE
  5
2AC
  8
0
  6
BYBLOCK
 62
     0
 10
326.229073
 20
34.521601
 30
0.0
 11
326.229073
 21
34.321601
 31
0.0
  0
LINE
  5
2AD
  8
0
  6
BYBLOCK
 62
     0
 10
326.229073
 20
34.521601
 30
0.0
 11
326.229073
 21
34.321601
 31
0.0
  0
SOLID
  5
2AE
  8
0
  6
BYBLOCK
 62
     0
 10
326.204073
 20
34.671601
 30
0.0
 11
326.254073
 21
34.671601
 31
0.0
 12
326.229073
 22
34.521601
 32
0.0
 13
326.229073
 23
34.521601
 33
0.0
  0
SOLID
  5
2AF
  8
0
  6
BYBLOCK
 62
     0
 10
326.204073
 20
34.171601
 30
0.0
 11
326.254073
 21
34.171601
 31
0.0
 12
326.229073
 22
34.321601
 32
0.0
 13
326.229073
 23
34.321601
 33
0.0
  0
POINT
  5
2B0
  8
DEFPOINTS
  6
BYBLOCK
 62
     0
 10
325.873656
 20
34.521601
 30
0.0
  0
POINT
  5
2B1
  8
DEFPOINTS
  6
BYBLOCK
 62
     0
 10
325.873656
 20
34.321601
 30
0.0
  0
POINT
  5
2B2
  8
DEFPOINTS
  6
BYBLOCK
 62
     0
 10
326.229073
 20
34.321601
 30
0.0
  0
ENDBLK
  5
2B3
  8
0
  0
BLOCK
  8
0
  2
*D5
 70
     1
 10
0.0
 20
0.0
 30
0.0
  3
*D5
  1

  0
LINE
  5
2B6
  8
0
  6
BYBLOCK
 62
     0
 10
321.858656
 20
34.521601
 30
0.0
 11
321.562295
 21
34.521601
 31
0.0
  0
LINE
  5
2B7
  8
0
  6
BYBLOCK
 62
     0
 10
321.858656
 20
33.921601
 30
0.0
 11
321.562295
 21
33.921601
 31
0.0
  0
LINE
  5
2B8
  8
0
  6
BYBLOCK
 62
     0
 10
321.577295
 20
34.371601
 30
0.0
 11
321.577295
 21
34.071601
 31
0.0
  0
SOLID
  5
2B9
  8
0
  6
BYBLOCK
 62
     0
 10
321.552295
 20
34.371601
 30
0.0
 11
321.602295
 21
34.371601
 31
0.0
 12
321.577295
 22
34.521601
 32
0.0
 13
321.577295
 23
34.521601
 33
0.0
  0
SOLID
  5
2BA
  8
0
  6
BYBLOCK
 62
     0
 10
321.552295
 20
34.071601
 30
0.0
 11
321.602295
 21
34.071601
 31
0.0
 12
321.577295
 22
33.921601
 32
0.0
 13
321.577295
 23
33.921601
 33
0.0
  0
TEXT
  8
0
  40
0.075
  5
340
  62
0
  72
0
  71
0
 10
321.352
 20
34.0889
 30
0.000000
  1
0.60
  7
ROMANC
  0
POINT
  5
2BC
  8
DEFPOINTS
  6
BYBLOCK
 62
     0
 10
321.873656
 20
34.521601
 30
0.0
  0
POINT
  5
2BD
  8
DEFPOINTS
  6
BYBLOCK
 62
     0
 10
321.873656
 20
33.921601
 30
0.0
  0
POINT
  5
2BE
  8
DEFPOINTS
  6
BYBLOCK
 62
     0
 10
321.577295
 20
33.921601
 30
0.0
  0
ENDBLK
  5
2BF
  8
0
  0
BLOCK
  8
0
  2
*D6
 70
     1
 10
0.0
 20
0.0
 30
0.0
  3
*D6
  1

  0
LINE
  5
2C3
  8
0
  6
BYBLOCK
 62
     0
 10
323.888656
 20
36.421601
 30
0.0
 11
326.573356
 21
36.421601
 31
0.0
  0
LINE
  5
2C4
  8
0
  6
BYBLOCK
 62
     0
 10
324.888656
 20
33.921601
 30
0.0
 11
326.573356
 21
33.921601
 31
0.0
  0
LINE
  5
2C5
  8
0
  6
BYBLOCK
 62
     0
 10
326.558356
 20
36.271601
 30
0.0
 11
326.558356
 21
34.071601
 31
0.0
  0
SOLID
  5
2C6
  8
0
  6
BYBLOCK
 62
     0
 10
326.533356
 20
36.271601
 30
0.0
 11
326.583356
 21
36.271601
 31
0.0
 12
326.558356
 22
36.421601
 32
0.0
 13
326.558356
 23
36.421601
 33
0.0
  0
SOLID
  5
2C7
  8
0
  6
BYBLOCK
 62
     0
 10
326.533356
 20
34.071601
 30
0.0
 11
326.583356
 21
34.071601
 31
0.0
 12
326.558356
 22
33.921601
 32
0.0
 13
326.558356
 23
33.921601
 33
0.0
  0
TEXT
  8
0
  40
0.075
  5
341
  62
0
  72
0
  71
0
 10
326.333
 20
35.0389
 30
0.000000
  1
2.50
  7
ROMANC
  0
POINT
  5
2C9
  8
DEFPOINTS
  6
BYBLOCK
 62
     0
 10
323.873656
 20
36.421601
 30
0.0
  0
POINT
  5
2CA
  8
DEFPOINTS
  6
BYBLOCK
 62
     0
 10
324.873656
 20
33.921601
 30
0.0
  0
POINT
  5
2CB
  8
DEFPOINTS
  6
BYBLOCK
 62
     0
 10
326.558356
 20
33.921601
 30
0.0
  0
ENDBLK
  5
2CC
  8
0
  0
BLOCK
  8
0
  2
*D7
 70
     1
 10
0.0
 20
0.0
 30
0.0
  3
*D7
  1

  0
LINE
  5
2D1
  8
0
  6
BYBLOCK
 62
     0
 10
322.023656
 20
34.521601
 30
0.0
 11
325.723656
 21
34.521601
 31
0.0
  0
SOLID
  5
2D2
  8
0
  6
BYBLOCK
 62
     0
 10
322.023656
 20
34.546601
 30
0.0
 11
322.023656
 21
34.496601
 31
0.0
 12
321.873656
 22
34.521601
 32
0.0
 13
321.873656
 23
34.521601
 33
0.0
  0
SOLID
  5
2D3
  8
0
  6
BYBLOCK
 62
     0
 10
325.723656
 20
34.546601
 30
0.0
 11
325.723656
 21
34.496601
 31
0.0
 12
325.873656
 22
34.521601
 32
0.0
 13
325.873656
 23
34.521601
 33
0.0
  0
TEXT
  8
0
  40
0.075
  5
342
  62
0
  72
0
  71
0
 10
323.724
 20
34.4639
 30
0.000000
  1
4.00
  7
ROMANC
  0
POINT
  5
2D5
  8
DEFPOINTS
  6
BYBLOCK
 62
     0
 10
321.873656
 20
34.521601
 30
0.0
  0
POINT
  5
2D6
  8
DEFPOINTS
  6
BYBLOCK
 62
     0
 10
325.873656
 20
34.521601
 30
0.0
  0
POINT
  5
2D7
  8
DEFPOINTS
  6
BYBLOCK
 62
     0
 10
325.873656
 20
34.521601
 30
0.0
  0
ENDBLK
  5
2D8
  8
0
  0
ENDSEC
  0
SECTION
  2
ENTITIES
  0
LINE
  5
27
  8
0
 10
329.348696
 20
29.863623
 30
0.0
 11
329.348696
 21
44.713623
 31
0.0
  0
LINE
  5
28
  8
0
 10
318.848696
 20
44.713623
 30
0.0
 11
318.848696
 21
29.863623
 31
0.0
  0
LINE
  5
29
  8
0
 10
318.848696
 20
29.863623
 30
0.0
 11
329.348696
 21
29.863623
 31
0.0
  0
TEXT
  5
2A
  8
0
 10
321.773149
 20
42.309482
 30
0.0
 40
0.3
  1
TIPUS   NT789
  7
ROMANC
  0
TEXT
  5
2D
  8
0
 10
321.735227
 20
40.527599
 30
0.0
 40
0.3
  1
P = 112,9 dm
  7
ROMANC
  0
TEXT
  5
2E
  8
0
 10
321.786243
 20
41.225178
 30
0.0
 40
0.3
  1
S = 789 dm
  7
ROMANC
  0
TEXT
  5
2F
  8
0
 10
321.773149
 20
41.823768
 30
0.0
 40
0.3
  1
ESCALA  1:50
  7
ROMANC
  0
TEXT
  5
30
  8
0
 10
324.991178
 20
41.531094
 30
0.0
 40
0.1
  1
2
  7
ROMANC
  0
LINE
  5
31
  8
0
 10
329.348696
 20
44.713623
 30
0.0
 11
318.848696
 21
44.713623
 31
0.0
  0
LINE
  5
2DF
  8
0
 10
324.699519
 20
34.314601
 30
0.0
 11
324.699519
 21
33.914601
 31
0.0
  0
LINE
  5
2E0
  8
0
 10
324.699519
 20
33.914601
 30
0.0
 11
321.685519
 21
33.914601
 31
0.0
  0
LINE
  5
2E1
  8
0
 10
321.685519
 20
33.914601
 30
0.0
 11
321.685519
 21
34.521781
 31
0.0
  0
ARC
  5
2E2
  8
0
 10
323.692519
 20
34.41897
 30
0.0
 40
2.009632
 50
2.93248
 51
177.06752
  0
LINE
  5
2E3
  8
0
 10
325.699519
 20
34.521781
 30
0.0
 11
325.699519
 21
34.314601
 31
0.0
  0
LINE
  5
2E4
  8
0
 10
325.699519
 20
34.314601
 30
0.0
 11
324.699519
 21
34.314601
 31
0.0
  0
LINE
  5
2E5
  8
0
 10
324.685519
 20
34.328601
 30
0.0
 11
324.685519
 21
33.928601
 31
0.0
  0
LINE
  5
2E6
  8
0
 10
324.685519
 20
33.928601
 30
0.0
 11
321.699519
 21
33.928601
 31
0.0
  0
LINE
  5
2E7
  8
0
 10
321.699519
 20
33.928601
 30
0.0
 11
321.699519
 21
34.521422
 31
0.0
  0
ARC
  5
2E8
  8
0
 10
323.692519
 20
34.41897
 30
0.0
 40
1.995632
 50
2.94275
 51
177.05725
  0
LINE
  5
2E9
  8
0
 10
325.685519
 20
34.521422
 30
0.0
 11
325.685519
 21
34.328601
 31
0.0
  0
LINE
  5
2EA
  8
0
 10
325.685519
 20
34.328601
 30
0.0
 11
324.685519
 21
34.328601
 31
0.0
  0
LINE
  5
2EB
  8
0
  6
BYBLOCK
 62
     0
 10
321.842519
 20
34.521601
 30
0.0
 11
325.542519
 21
34.521601
 31
0.0
  0
SOLID
  5
2EC
  8
0
  6
BYBLOCK
 62
     0
 10
321.842519
 20
34.546601
 30
0.0
 11
321.842519
 21
34.496601
 31
0.0
 12
321.692519
 22
34.521601
 32
0.0
 13
321.692519
 23
34.521601
 33
0.0
  0
SOLID
  5
2ED
  8
0
  6
BYBLOCK
 62
     0
 10
325.542519
 20
34.546601
 30
0.0
 11
325.542519
 21
34.496601
 31
0.0
 12
325.692519
 22
34.521601
 32
0.0
 13
325.692519
 23
34.521601
 33
0.0
  0
TEXT
  8
0
  40
0.075
  5
343
  62
0
  72
0
  71
0
 10
323.543
 20
34.4639
 30
0.000000
  1
4.00
  7
ROMANC
  0
POINT
  5
2EF
  8
DEFPOINTS
  6
BYBLOCK
 62
     0
 10
321.692519
 20
34.521601
 30
0.0
  0
POINT
  5
2F0
  8
DEFPOINTS
  6
BYBLOCK
 62
     0
 10
325.692519
 20
34.521601
 30
0.0
  0
POINT
  5
2F1
  8
DEFPOINTS
  6
BYBLOCK
 62
     0
 10
325.692519
 20
34.521601
 30
0.0
  0
LINE
  5
2F2
  8
0
 10
324.692519
 20
34.321601
 30
0.0
 11
324.692519
 21
33.921601
 31
0.0
  0
LINE
  5
2F3
  8
0
 10
324.692519
 20
33.921601
 30
0.0
 11
321.692519
 21
33.921601
 31
0.0
  0
LINE
  5
2F4
  8
0
 10
321.692519
 20
33.921601
 30
0.0
 11
321.692519
 21
34.521601
 31
0.0
  0
ARC
  5
2F5
  8
0
 10
323.692519
 20
34.41897
 30
0.0
 40
2.002632
 50
2.937601
 51
177.062399
  0
LINE
  5
2F6
  8
0
 10
325.692519
 20
34.521601
 30
0.0
 11
325.692519
 21
34.321601
 31
0.0
  0
LINE
  5
2F7
  8
0
 10
325.692519
 20
34.321601
 30
0.0
 11
324.692519
 21
34.321601
 31
0.0
  0
LINE
  5
2F8
  8
0
  6
BYBLOCK
 62
     0
 10
323.707519
 20
36.421601
 30
0.0
 11
326.392219
 21
36.421601
 31
0.0
  0
LINE
  5
2F9
  8
0
  6
BYBLOCK
 62
     0
 10
324.707519
 20
33.921601
 30
0.0
 11
326.392219
 21
33.921601
 31
0.0
  0
LINE
  5
2FA
  8
0
  6
BYBLOCK
 62
     0
 10
326.377219
 20
36.271601
 30
0.0
 11
326.377219
 21
34.071601
 31
0.0
  0
SOLID
  5
2FB
  8
0
  6
BYBLOCK
 62
     0
 10
326.352219
 20
36.271601
 30
0.0
 11
326.402219
 21
36.271601
 31
0.0
 12
326.377219
 22
36.421601
 32
0.0
 13
326.377219
 23
36.421601
 33
0.0
  0
SOLID
  5
2FC
  8
0
  6
BYBLOCK
 62
     0
 10
326.352219
 20
34.071601
 30
0.0
 11
326.402219
 21
34.071601
 31
0.0
 12
326.377219
 22
33.921601
 32
0.0
 13
326.377219
 23
33.921601
 33
0.0
  0
TEXT
  8
0
  40
0.075
  5
344
  62
0
  72
0
  71
0
 10
326.152
 20
35.0389
 30
0.000000
  1
2.50
  7
ROMANC
  0
POINT
  5
2FE
  8
DEFPOINTS
  6
BYBLOCK
 62
     0
 10
323.692519
 20
36.421601
 30
0.0
  0
POINT
  5
2FF
  8
DEFPOINTS
  6
BYBLOCK
 62
     0
 10
324.692519
 20
33.921601
 30
0.0
  0
POINT
  5
300
  8
DEFPOINTS
  6
BYBLOCK
 62
     0
 10
326.377219
 20
33.921601
 30
0.0
  0
LINE
  5
301
  8
0
  6
BYBLOCK
 62
     0
 10
321.677519
 20
34.521601
 30
0.0
 11
321.381158
 21
34.521601
 31
0.0
  0
LINE
  5
302
  8
0
  6
BYBLOCK
 62
     0
 10
321.677519
 20
33.921601
 30
0.0
 11
321.381158
 21
33.921601
 31
0.0
  0
LINE
  5
303
  8
0
  6
BYBLOCK
 62
     0
 10
321.396158
 20
34.371601
 30
0.0
 11
321.396158
 21
34.071601
 31
0.0
  0
SOLID
  5
304
  8
0
  6
BYBLOCK
 62
     0
 10
321.371158
 20
34.371601
 30
0.0
 11
321.421158
 21
34.371601
 31
0.0
 12
321.396158
 22
34.521601
 32
0.0
 13
321.396158
 23
34.521601
 33
0.0
  0
SOLID
  5
305
  8
0
  6
BYBLOCK
 62
     0
 10
321.371158
 20
34.071601
 30
0.0
 11
321.421158
 21
34.071601
 31
0.0
 12
321.396158
 22
33.921601
 32
0.0
 13
321.396158
 23
33.921601
 33
0.0
  0
TEXT
  8
0
  40
0.075
  5
345
  62
0
  72
0
  71
0
 10
321.171
 20
34.0889
 30
0.000000
  1
0.60
  7
ROMANC
  0
POINT
  5
307
  8
DEFPOINTS
  6
BYBLOCK
 62
     0
 10
321.692519
 20
34.521601
 30
0.0
  0
POINT
  5
308
  8
DEFPOINTS
  6
BYBLOCK
 62
     0
 10
321.692519
 20
33.921601
 30
0.0
  0
POINT
  5
309
  8
DEFPOINTS
  6
BYBLOCK
 62
     0
 10
321.396158
 20
33.921601
 30
0.0
  0
LINE
  5
30A
  8
0
  6
BYBLOCK
 62
     0
 10
325.707519
 20
34.521601
 30
0.0
 11
326.062935
 21
34.521601
 31
0.0
  0
LINE
  5
30B
  8
0
  6
BYBLOCK
 62
     0
 10
325.707519
 20
34.321601
 30
0.0
 11
326.062935
 21
34.321601
 31
0.0
  0
LINE
  5
30C
  8
0
  6
BYBLOCK
 62
     0
 10
326.047935
 20
34.671601
 30
0.0
 11
326.047935
 21
34.821601
 31
0.0
  0
LINE
  5
30D
  8
0
  6
BYBLOCK
 62
     0
 10
326.047935
 20
34.171601
 30
0.0
 11
326.047935
 21
34.021601
 31
0.0
  0
TEXT
  8
0
  40
0.075
  5
346
  62
0
  72
0
  71
0
 10
325.823
 20
34.5306
 30
0.000000
  1
0.20
  7
ROMANC
  0
LINE
  5
30F
  8
0
  6
BYBLOCK
 62
     0
 10
326.047935
 20
34.521601
 30
0.0
 11
326.047935
 21
34.321601
 31
0.0
  0
LINE
  5
310
  8
0
  6
BYBLOCK
 62
     0
 10
326.047935
 20
34.521601
 30
0.0
 11
326.047935
 21
34.321601
 31
0.0
  0
SOLID
  5
311
  8
0
  6
BYBLOCK
 62
     0
 10
326.022935
 20
34.671601
 30
0.0
 11
326.072935
 21
34.671601
 31
0.0
 12
326.047935
 22
34.521601
 32
0.0
 13
326.047935
 23
34.521601
 33
0.0
  0
SOLID
  5
312
  8
0
  6
BYBLOCK
 62
     0
 10
326.022935
 20
34.171601
 30
0.0
 11
326.072935
 21
34.171601
 31
0.0
 12
326.047935
 22
34.321601
 32
0.0
 13
326.047935
 23
34.321601
 33
0.0
  0
POINT
  5
313
  8
DEFPOINTS
  6
BYBLOCK
 62
     0
 10
325.692519
 20
34.521601
 30
0.0
  0
POINT
  5
314
  8
DEFPOINTS
  6
BYBLOCK
 62
     0
 10
325.692519
 20
34.321601
 30
0.0
  0
POINT
  5
315
  8
DEFPOINTS
  6
BYBLOCK
 62
     0
 10
326.047935
 20
34.321601
 30
0.0
  0
LINE
  5
316
  8
0
  6
BYBLOCK
 62
     0
 10
325.707519
 20
34.321601
 30
0.0
 11
326.062935
 21
34.321601
 31
0.0
  0
LINE
  5
317
  8
0
  6
BYBLOCK
 62
     0
 10
324.707519
 20
33.921601
 30
0.0
 11
326.062935
 21
33.921601
 31
0.0
  0
LINE
  5
318
  8
0
  6
BYBLOCK
 62
     0
 10
326.047935
 20
34.171601
 30
0.0
 11
326.047935
 21
34.071601
 31
0.0
  0
SOLID
  5
319
  8
0
  6
BYBLOCK
 62
     0
 10
326.022935
 20
34.171601
 30
0.0
 11
326.072935
 21
34.171601
 31
0.0
 12
326.047935
 22
34.321601
 32
0.0
 13
326.047935
 23
34.321601
 33
0.0
  0
SOLID
  5
31A
  8
0
  6
BYBLOCK
 62
     0
 10
326.022935
 20
34.071601
 30
0.0
 11
326.072935
 21
34.071601
 31
0.0
 12
326.047935
 22
33.921601
 32
0.0
 13
326.047935
 23
33.921601
 33
0.0
  0
TEXT
  8
0
  40
0.075
  5
347
  62
0
  72
0
  71
0
 10
325.823
 20
33.9889
 30
0.000000
  1
0.40
  7
ROMANC
  0
POINT
  5
31C
  8
DEFPOINTS
  6
BYBLOCK
 62
     0
 10
325.692519
 20
34.321601
 30
0.0
  0
POINT
  5
31D
  8
DEFPOINTS
  6
BYBLOCK
 62
     0
 10
324.692519
 20
33.921601
 30
0.0
  0
POINT
  5
31E
  8
DEFPOINTS
  6
BYBLOCK
 62
     0
 10
326.047935
 20
33.921601
 30
0.0
  0
LINE
  5
31F
  8
0
  6
BYBLOCK
 62
     0
 10
321.692519
 20
33.906601
 30
0.0
 11
321.692519
 21
33.285019
 31
0.0
  0
LINE
  5
320
  8
0
  6
BYBLOCK
 62
     0
 10
325.692519
 20
34.306601
 30
0.0
 11
325.692519
 21
33.285019
 31
0.0
  0
LINE
  5
321
  8
0
  6
BYBLOCK
 62
     0
 10
321.842519
 20
33.300019
 30
0.0
 11
325.542519
 21
33.300019
 31
0.0
  0
SOLID
  5
322
  8
0
  6
BYBLOCK
 62
     0
 10
321.842519
 20
33.325019
 30
0.0
 11
321.842519
 21
33.275019
 31
0.0
 12
321.692519
 22
33.300019
 32
0.0
 13
321.692519
 23
33.300019
 33
0.0
  0
SOLID
  5
323
  8
0
  6
BYBLOCK
 62
     0
 10
325.542519
 20
33.325019
 30
0.0
 11
325.542519
 21
33.275019
 31
0.0
 12
325.692519
 22
33.300019
 32
0.0
 13
325.692519
 23
33.300019
 33
0.0
  0
TEXT
  8
0
  40
0.075
  5
348
  62
0
  72
0
  71
0
 10
323.543
 20
33.2423
 30
0.000000
  1
4.00
  7
ROMANC
  0
POINT
  5
325
  8
DEFPOINTS
  6
BYBLOCK
 62
     0
 10
321.692519
 20
33.921601
 30
0.0
  0
POINT
  5
326
  8
DEFPOINTS
  6
BYBLOCK
 62
     0
 10
325.692519
 20
34.321601
 30
0.0
  0
POINT
  5
327
  8
DEFPOINTS
  6
BYBLOCK
 62
     0
 10
325.692519
 20
33.300019
 30
0.0
  0
LINE
  5
328
  8
0
  6
BYBLOCK
 62
     0
 10
324.692519
 20
33.906601
 30
0.0
 11
324.692519
 21
33.556635
 31
0.0
  0
LINE
  5
329
  8
0
  6
BYBLOCK
 62
     0
 10
321.692519
 20
33.906601
 30
0.0
 11
321.692519
 21
33.556635
 31
0.0
  0
LINE
  5
32A
  8
0
  6
BYBLOCK
 62
     0
 10
324.542519
 20
33.571635
 30
0.0
 11
321.842519
 21
33.571635
 31
0.0
  0
SOLID
  5
32B
  8
0
  6
BYBLOCK
 62
     0
 10
324.542519
 20
33.596635
 30
0.0
 11
324.542519
 21
33.546635
 31
0.0
 12
324.692519
 22
33.571635
 32
0.0
 13
324.692519
 23
33.571635
 33
0.0
  0
SOLID
  5
32C
  8
0
  6
BYBLOCK
 62
     0
 10
321.842519
 20
33.596635
 30
0.0
 11
321.842519
 21
33.546635
 31
0.0
 12
321.692519
 22
33.571635
 32
0.0
 13
321.692519
 23
33.571635
 33
0.0
  0
TEXT
  8
0
  40
0.075
  5
349
  62
0
  72
0
  71
0
 10
323.043
 20
33.5139
 30
0.000000
  1
3.00
  7
ROMANC
  0
POINT
  5
32E
  8
DEFPOINTS
  6
BYBLOCK
 62
     0
 10
324.692519
 20
33.921601
 30
0.0
  0
POINT
  5
32F
  8
DEFPOINTS
  6
BYBLOCK
 62
     0
 10
321.692519
 20
33.921601
 30
0.0
  0
POINT
  5
330
  8
DEFPOINTS
  6
BYBLOCK
 62
     0
 10
321.692519
 20
33.571635
 30
0.0
  0
LINE
  5
331
  8
0
  6
BYBLOCK
 62
     0
 10
324.692519
 20
33.906601
 30
0.0
 11
324.692519
 21
33.556635
 31
0.0
  0
LINE
  5
332
  8
0
  6
BYBLOCK
 62
     0
 10
325.692519
 20
34.306601
 30
0.0
 11
325.692519
 21
33.556635
 31
0.0
  0
LINE
  5
333
  8
0
  6
BYBLOCK
 62
     0
 10
324.842519
 20
33.571635
 30
0.0
 11
325.542519
 21
33.571635
 31
0.0
  0
SOLID
  5
334
  8
0
  6
BYBLOCK
 62
     0
 10
324.842519
 20
33.596635
 30
0.0
 11
324.842519
 21
33.546635
 31
0.0
 12
324.692519
 22
33.571635
 32
0.0
 13
324.692519
 23
33.571635
 33
0.0
  0
SOLID
  5
335
  8
0
  6
BYBLOCK
 62
     0
 10
325.542519
 20
33.596635
 30
0.0
 11
325.542519
 21
33.546635
 31
0.0
 12
325.692519
 22
33.571635
 32
0.0
 13
325.692519
 23
33.571635
 33
0.0
  0
TEXT
  8
0
  40
0.075
  5
34A
  62
0
  72
0
  71
0
 10
325.043
 20
33.5139
 30
0.000000
  1
1.00
  7
ROMANC
  0
POINT
  5
337
  8
DEFPOINTS
  6
BYBLOCK
 62
     0
 10
324.692519
 20
33.921601
 30
0.0
  0
POINT
  5
338
  8
DEFPOINTS
  6
BYBLOCK
 62
     0
 10
325.692519
 20
34.321601
 30
0.0
  0
POINT
  5
339
  8
DEFPOINTS
  6
BYBLOCK
 62
     0
 10
325.692519
 20
33.571635
 30
0.0
  0
ENDSEC
  0
EOF
