  0
SECTION
  2
HEADER
  9
$ACADVER
  1
AC1009
  9
$INSBASE
 10
0.0
 20
0.0
 30
0.0
  9
$EXTMIN
 10
281.396000
 20
29.897000
 30
-2147483.648000
  9
$EXTMAX
 10
291.896000
 20
44.747000
 30
0.000000
  9
$LIMMIN
 10
280.396000
 20
28.897000
  9
$LIMMAX
 10
292.896000
 20
43.747000
  9
$ORTHOMODE
 70
     0
  9
$REGENMODE
 70
     1
  9
$FILLMODE
 70
     1
  9
$QTEXTMODE
 70
     0
  9
$MIRRTEXT
 70
     1
  9
$DRAGMODE
 70
     2
  9
$LTSCALE
 40
1.0
  9
$OSMODE
 70
     0
  9
$ATTMODE
 70
     1
  9
$TEXTSIZE
 40
0.2
  9
$TRACEWID
 40
0.05
  9
$TEXTSTYLE
  7
STANDARD
  9
$CLAYER
  8
0
  9
$CELTYPE
  6
BYLAYER
  9
$CECOLOR
 62
   256
  9
$DIMSCALE
 40
1.0
  9
$DIMASZ
 40
0.18
  9
$DIMEXO
 40
0.0625
  9
$DIMDLI
 40
0.38
  9
$DIMRND
 40
0.0
  9
$DIMDLE
 40
0.0
  9
$DIMEXE
 40
0.18
  9
$DIMTP
 40
0.0
  9
$DIMTM
 40
0.0
  9
$DIMTXT
 40
0.18
  9
$DIMCEN
 40
0.09
  9
$DIMTSZ
 40
0.0
  9
$DIMTOL
 70
     0
  9
$DIMLIM
 70
     0
  9
$DIMTIH
 70
     1
  9
$DIMTOH
 70
     1
  9
$DIMSE1
 70
     0
  9
$DIMSE2
 70
     0
  9
$DIMTAD
 70
     0
  9
$DIMZIN
 70
     0
  9
$DIMBLK
  1

  9
$DIMASO
 70
     1
  9
$DIMSHO
 70
     1
  9
$DIMPOST
  1

  9
$DIMAPOST
  1

  9
$DIMALT
 70
     0
  9
$DIMALTD
 70
     2
  9
$DIMALTF
 40
25.4
  9
$DIMLFAC
 40
1.0
  9
$DIMTOFL
 70
     0
  9
$DIMTVP
 40
0.0
  9
$DIMTIX
 70
     0
  9
$DIMSOXD
 70
     0
  9
$DIMSAH
 70
     0
  9
$DIMBLK1
  1

  9
$DIMBLK2
  1

  9
$DIMSTYLE
  2
*UNNAMED
  9
$DIMCLRD
 70
     0
  9
$DIMCLRE
 70
     0
  9
$DIMCLRT
 70
     0
  9
$DIMTFAC
 40
1.0
  9
$DIMGAP
 40
0.09
  9
$LUNITS
 70
     2
  9
$LUPREC
 70
     4
  9
$AXISMODE
 70
     0
  9
$AXISUNIT
 10
0.0
 20
0.0
  9
$SKETCHINC
 40
0.1
  9
$FILLETRAD
 40
0.0
  9
$AUNITS
 70
     0
  9
$AUPREC
 70
     0
  9
$MENU
  1
acad
  9
$ELEVATION
 40
0.0
  9
$PELEVATION
 40
0.0
  9
$THICKNESS
 40
0.0
  9
$LIMCHECK
 70
     0
  9
$BLIPMODE
 70
     1
  9
$CHAMFERA
 40
0.0
  9
$CHAMFERB
 40
0.0
  9
$SKPOLY
 70
     0
  9
$TDCREATE
 40
2448315.373408102
  9
$TDUPDATE
 40
2448315.373408102
  9
$TDINDWG
 40
0.0000000000
  9
$TDUSRTIMER
 40
0.0000000000
  9
$USRTIMER
 70
     1
  9
$ANGBASE
 50
0.0
  9
$ANGDIR
 70
     0
  9
$PDMODE
 70
     0
  9
$PDSIZE
 40
0.0
  9
$PLINEWID
 40
0.0
  9
$COORDS
 70
     0
  9
$SPLFRAME
 70
     0
  9
$SPLINETYPE
 70
     6
  9
$SPLINESEGS
 70
     8
  9
$ATTDIA
 70
     0
  9
$ATTREQ
 70
     1
  9
$HANDLING
 70
     0
  9
$HANDSEED
  5
0
  9
$SURFTAB1
 70
     6
  9
$SURFTAB2
 70
     6
  9
$SURFTYPE
 70
     6
  9
$SURFU
 70
     6
  9
$SURFV
 70
     6
  9
$UCSNAME
  2

  9
$UCSORG
 10
0.0
 20
0.0
 30
0.0
  9
$UCSXDIR
 10
1.0
 20
0.0
 30
0.0
  9
$UCSYDIR
 10
0.0
 20
1.0
 30
0.0
  9
$PUCSNAME
  2

  9
$PUCSORG
 10
0.0
 20
0.0
 30
0.0
  9
$PUCSXDIR
 10
1.0
 20
0.0
 30
0.0
  9
$PUCSYDIR
 10
0.0
 20
1.0
 30
0.0
  9
$USERI1
 70
     0
  9
$USERI2
 70
     0
  9
$USERI3
 70
     0
  9
$USERI4
 70
     0
  9
$USERI5
 70
     0
  9
$USERR1
 40
0.0
  9
$USERR2
 40
0.0
  9
$USERR3
 40
0.0
  9
$USERR4
 40
0.0
  9
$USERR5
 40
0.0
  9
$WORLDVIEW
 70
     1
  9
$SHADEDGE
 70
     3
  9
$SHADEDIF
 70
    70
  9
$TILEMODE
 70
     1
  9
$MAXACTVP
 70
    16
  9
$PINSBASE
 10
0.0
 20
0.0
 30
0.0
  9
$PLIMCHECK
 70
     0
  9
$PEXTMIN
 10
1.000000E+20
 20
1.000000E+20
 30
1.000000E+20
  9
$PEXTMAX
 10
-1.000000E+20
 20
-1.000000E+20
 30
-1.000000E+20
  9
$PLIMMIN
 10
0.0
 20
0.0
  9
$PLIMMAX
 10
12.0
 20
9.0
  9
$UNITMODE
 70
     0
  9
$VISRETAIN
 70
     0
  0
ENDSEC
  0
SECTION
  2
TABLES
  0
TABLE
  2
LTYPE
 70
    1
  0
LTYPE
  2
CONTINUOUS
 70
    64
3
Solid line
 72
    65
 73
0
 40
0.000000
  0
ENDTAB
  0
TABLE
  2
LAYER
 70
    8
  0
LAYER
  2
0
 70
    64
 62
7
  6
CONTINUOUS
  0
LAYER
  2
1
 70
    64
 62
7
  6
CONTINUOUS
  0
LAYER
  2
7
 70
    64
 62
7
  6
CONTINUOUS
  0
LAYER
  2
8
 70
    64
 62
7
  6
CONTINUOUS
  0
LAYER
  2
9
 70
    64
 62
7
  6
CONTINUOUS
  0
LAYER
  2
22
 70
    64
 62
7
  6
CONTINUOUS
  0
LAYER
  2
25
 70
    64
 62
7
  6
CONTINUOUS
  0
LAYER
  2
0
 70
    64
 62
7
  6
CONTINUOUS
  0
ENDTAB
  0
TABLE
  2
STYLE
 70
    1
  0
STYLE
  2
ROMANC
70
     0
 40
0.0
 41
1.0
 50
0.0
 71
     0
 42
0.2
  3
ROMANC
  4

  0
ENDTAB
  0
ENDSEC
  0
SECTION
  2
BLOCKS
  0
ENDSEC
  0
SECTION
  2
ENTITIES
  0
TEXT
  8
0
  6
CONTINUOUS
 40
0.100000
 10
286.909000
 20
41.324000
  1
2
  7
ROMANC
  0
TEXT
  8
0
  6
CONTINUOUS
 40
0.300000
 10
283.926000
 20
41.768000
  1
ESCALA  1:50
  7
ROMANC
  0
POLYLINE
  8
0
  6
CONTINUOUS
 66
     1
 70
     1
  0
VERTEX
  8
0
  6
CONTINUOUS
 10
281.396000
 20
44.747000
  0
VERTEX
  8
0
  6
CONTINUOUS
 10
291.896000
 20
44.747000
  0
VERTEX
  8
0
  6
CONTINUOUS
 10
291.896000
 20
29.897000
  0
VERTEX
  8
0
  6
CONTINUOUS
 10
281.396000
 20
29.897000
  0
SEQEND
  8
0
  0
ARC
  8
1
  6
CONTINUOUS
 10
286.560000
 20
34.299657
 40
1.536343
 50
6.966544
 51
173.033458
  0
TEXT
  8
0
  6
CONTINUOUS
 40
0.300000
 10
283.922000
 20
40.529000
  1
P = 107 dm
  7
ROMANC
  0
TEXT
  8
0
  6
CONTINUOUS
 40
0.300000
 10
283.945000
 20
41.099000
  1
S = 781 dm
  7
ROMANC
  0
LINE
  8
1
  6
CONTINUOUS
 10
286.885000
 20
33.236000
 11
286.885000
 21
32.786000
  0
LINE
  8
1
  6
CONTINUOUS
 10
287.985000
 20
33.236000
 11
286.885000
 21
33.236000
  0
TEXT
  8
1
  6
CONTINUOUS
 40
0.075000
 10
287.334000
 20
32.456000
  1
1.10
  7
ROMANC
  0
LINE
  8
1
  6
CONTINUOUS
 10
287.296000
 20
32.494000
 11
286.885000
 21
32.494000
  0
LINE
  8
1
  6
CONTINUOUS
 10
287.573000
 20
32.494000
 11
287.985000
 21
32.494000
  0
LINE
  8
1
  6
CONTINUOUS
 10
286.848000
 20
32.475000
 11
286.922000
 21
32.513000
  0
LINE
  8
1
  6
CONTINUOUS
 10
288.022000
 20
32.513000
 11
287.948000
 21
32.475000
  0
LINE
  8
1
  6
CONTINUOUS
 10
286.885000
 20
32.748000
 11
286.885000
 21
32.456000
  0
LINE
  8
1
  6
CONTINUOUS
 10
287.985000
 20
33.198000
 11
287.985000
 21
32.456000
  0
LINE
  8
1
  6
CONTINUOUS
 10
285.135000
 20
32.786000
 11
285.035000
 21
34.486000
  0
LINE
  8
1
  6
CONTINUOUS
 10
288.085000
 20
34.486000
 11
287.985000
 21
33.236000
  0
TEXT
  8
1
  6
CONTINUOUS
 40
0.075000
 10
286.441000
 20
32.246000
  1
2.85
  7
ROMANC
  0
LINE
  8
1
  6
CONTINUOUS
 10
286.403000
 20
32.284000
 11
285.135000
 21
32.284000
  0
LINE
  8
1
  6
CONTINUOUS
 10
286.715000
 20
32.284000
 11
287.985000
 21
32.284000
  0
LINE
  8
1
  6
CONTINUOUS
 10
285.098000
 20
32.265000
 11
285.172000
 21
32.303000
  0
LINE
  8
1
  6
CONTINUOUS
 10
288.022000
 20
32.303000
 11
287.948000
 21
32.265000
  0
LINE
  8
1
  6
CONTINUOUS
 10
285.135000
 20
32.748000
 11
285.135000
 21
32.246000
  0
LINE
  8
1
  6
CONTINUOUS
 10
287.985000
 20
33.198000
 11
287.985000
 21
32.246000
  0
ARC
  8
1
  6
CONTINUOUS
 10
286.010000
 20
35.263083
 40
2.627083
 50
250.544842
 51
289.455156
  0
TEXT
  8
1
  6
CONTINUOUS
 40
0.075000
 10
288.292000
 20
32.945000
  1
0.15
 50
90.000000
  7
ROMANC
  0
LINE
  8
1
  6
CONTINUOUS
 10
288.254000
 20
32.486000
 11
288.254000
 21
32.636000
  0
LINE
  8
1
  6
CONTINUOUS
 10
288.254000
 20
32.907000
 11
288.254000
 21
32.786000
  0
LINE
  8
1
  6
CONTINUOUS
 10
288.235000
 20
32.674000
 11
288.273000
 21
32.598000
  0
LINE
  8
1
  6
CONTINUOUS
 10
288.273000
 20
32.748000
 11
288.235000
 21
32.824000
  0
LINE
  8
1
  6
CONTINUOUS
 10
286.048000
 20
32.636000
 11
288.292000
 21
32.636000
  0
LINE
  8
1
  6
CONTINUOUS
 10
286.923000
 20
32.786000
 11
288.292000
 21
32.786000
  0
TEXT
  8
1
  6
CONTINUOUS
 40
0.075000
 10
288.520000
 20
32.889000
  1
0.45
 50
90.000000
  7
ROMANC
  0
LINE
  8
1
  6
CONTINUOUS
 10
288.482000
 20
32.636000
 11
288.482000
 21
32.786000
  0
LINE
  8
1
  6
CONTINUOUS
 10
288.482000
 20
33.386000
 11
288.482000
 21
33.236000
  0
LINE
  8
1
  6
CONTINUOUS
 10
288.463000
 20
32.824000
 11
288.501000
 21
32.748000
  0
LINE
  8
1
  6
CONTINUOUS
 10
288.501000
 20
33.198000
 11
288.463000
 21
33.274000
  0
LINE
  8
1
  6
CONTINUOUS
 10
286.923000
 20
32.786000
 11
288.520000
 21
32.786000
  0
LINE
  8
1
  6
CONTINUOUS
 10
288.023000
 20
33.236000
 11
288.520000
 21
33.236000
  0
TEXT
  8
1
  6
CONTINUOUS
 40
0.075000
 10
288.520000
 20
33.751000
  1
1.25
 50
90.000000
  7
ROMANC
  0
LINE
  8
1
  6
CONTINUOUS
 10
288.482000
 20
33.713000
 11
288.482000
 21
33.236000
  0
LINE
  8
1
  6
CONTINUOUS
 10
288.482000
 20
34.008000
 11
288.482000
 21
34.486000
  0
LINE
  8
1
  6
CONTINUOUS
 10
288.501000
 20
33.198000
 11
288.463000
 21
33.274000
  0
LINE
  8
1
  6
CONTINUOUS
 10
288.463000
 20
34.524000
 11
288.501000
 21
34.448000
  0
LINE
  8
1
  6
CONTINUOUS
 10
288.023000
 20
33.236000
 11
288.520000
 21
33.236000
  0
LINE
  8
1
  6
CONTINUOUS
 10
288.123000
 20
34.486000
 11
288.520000
 21
34.486000
  0
TEXT
  8
1
  6
CONTINUOUS
 40
0.075000
 10
288.520000
 20
35.051000
  1
1.35
 50
90.000000
  7
ROMANC
  0
LINE
  8
1
  6
CONTINUOUS
 10
288.482000
 20
35.013000
 11
288.482000
 21
34.486000
  0
LINE
  8
1
  6
CONTINUOUS
 10
288.482000
 20
35.308000
 11
288.482000
 21
35.836000
  0
LINE
  8
1
  6
CONTINUOUS
 10
288.501000
 20
34.448000
 11
288.463000
 21
34.524000
  0
LINE
  8
1
  6
CONTINUOUS
 10
288.463000
 20
35.874000
 11
288.501000
 21
35.798000
  0
LINE
  8
1
  6
CONTINUOUS
 10
286.598000
 20
35.836000
 11
288.520000
 21
35.836000
  0
TEXT
  8
1
  6
CONTINUOUS
 40
0.075000
 10
288.818000
 20
34.117000
  1
3.20
 50
90.000000
  7
ROMANC
  0
LINE
  8
1
  6
CONTINUOUS
 10
288.781000
 20
34.079000
 11
288.781000
 21
32.636000
  0
LINE
  8
1
  6
CONTINUOUS
 10
288.781000
 20
34.391000
 11
288.781000
 21
35.836000
  0
LINE
  8
1
  6
CONTINUOUS
 10
288.800000
 20
32.598000
 11
288.762000
 21
32.674000
  0
LINE
  8
1
  6
CONTINUOUS
 10
288.762000
 20
35.874000
 11
288.800000
 21
35.798000
  0
LINE
  8
1
  6
CONTINUOUS
 10
286.048000
 20
32.636000
 11
288.819000
 21
32.636000
  0
LINE
  8
1
  6
CONTINUOUS
 10
286.598000
 20
35.836000
 11
288.819000
 21
35.836000
  0
TEXT
  8
1
  6
CONTINUOUS
 40
0.075000
 10
286.441000
 20
36.018000
  1
3.05
  7
ROMANC
  0
LINE
  8
1
  6
CONTINUOUS
 10
286.403000
 20
36.056000
 11
285.035000
 21
36.056000
  0
LINE
  8
1
  6
CONTINUOUS
 10
286.715000
 20
36.056000
 11
288.085000
 21
36.056000
  0
LINE
  8
1
  6
CONTINUOUS
 10
284.998000
 20
36.037000
 11
285.072000
 21
36.075000
  0
LINE
  8
1
  6
CONTINUOUS
 10
288.122000
 20
36.075000
 11
288.048000
 21
36.037000
  0
LINE
  8
1
  6
CONTINUOUS
 10
285.035000
 20
34.524000
 11
285.035000
 21
36.094000
  0
LINE
  8
1
  6
CONTINUOUS
 10
288.085000
 20
34.524000
 11
288.085000
 21
36.094000
  0
ARC
  8
1
  6
CONTINUOUS
 10
286.560000
 20
34.299657
 40
1.546343
 50
6.966544
 51
173.033458
  0
ARC
  8
1
  6
CONTINUOUS
 10
286.560000
 20
34.299657
 40
1.556343
 50
6.966544
 51
173.033458
  0
LINE
  8
1
  6
CONTINUOUS
 10
288.094000
 20
34.485000
 11
287.993000
 21
33.226000
  0
LINE
  8
1
  6
CONTINUOUS
 10
288.104000
 20
34.484000
 11
288.003000
 21
33.216000
  0
LINE
  8
1
  6
CONTINUOUS
 10
287.993000
 20
33.226000
 11
286.895000
 21
33.226000
  0
LINE
  8
1
  6
CONTINUOUS
 10
288.003000
 20
33.216000
 11
286.905000
 21
33.216000
  0
LINE
  8
1
  6
CONTINUOUS
 10
286.895000
 20
33.226000
 11
286.895000
 21
32.779000
  0
LINE
  8
1
  6
CONTINUOUS
 10
286.905000
 20
33.216000
 11
286.905000
 21
32.772000
  0
ARC
  8
1
  6
CONTINUOUS
 10
286.010000
 20
35.263083
 40
2.637083
 50
250.399494
 51
289.608908
  0
ARC
  8
1
  6
CONTINUOUS
 10
286.010000
 20
35.263083
 40
2.647083
 50
250.255086
 51
289.761644
  0
LINE
  8
1
  6
CONTINUOUS
 10
285.125000
 20
32.779000
 11
285.025000
 21
34.485000
  0
LINE
  8
1
  6
CONTINUOUS
 10
285.116000
 20
32.772000
 11
285.015000
 21
34.484000
  0
TEXT
  8
0
  6
CONTINUOUS
 40
0.300000
 10
283.926000
 20
42.381000
  1
TIPUS   NT781
  7
ROMANC
  0
ENDSEC
  0
EOF
