  0
SECTION
  2
HEADER
  9
$ACADVER
  1
AC1009
  9
$INSBASE
 10
155.028256
 20
45.094906
 30
0.0
  9
$EXTMIN
 10
155.028256
 20
45.094906
 30
0.0
  9
$EXTMAX
 10
165.528256
 20
59.944906
 30
0.0
  9
$LIMMIN
 10
0.0
 20
0.0
  9
$LIMMAX
 10
410.0
 20
287.0
  9
$ORTHOMODE
 70
     0
  9
$REGENMODE
 70
     1
  9
$FILLMODE
 70
     1
  9
$QTEXTMODE
 70
     0
  9
$MIRRTEXT
 70
     1
  9
$DRAGMODE
 70
     2
  9
$LTSCALE
 40
25.0
  9
$OSMODE
 70
    32
  9
$ATTMODE
 70
     1
  9
$TEXTSIZE
 40
0.1
  9
$TRACEWID
 40
1.0
  9
$TEXTSTYLE
  7
ROMANC
  9
$CLAYER
  8
0
  9
$CELTYPE
  6
BYLAYER
  9
$CECOLOR
 62
   256
  9
$DIMSCALE
 40
0.0
  9
$DIMASZ
 40
0.0
  9
$DIMEXO
 40
0.1
  9
$DIMDLI
 40
7.0
  9
$DIMRND
 40
0.0
  9
$DIMDLE
 40
0.0
  9
$DIMEXE
 40
1.8
  9
$DIMTP
 40
0.0
  9
$DIMTM
 40
0.0
  9
$DIMTXT
 40
0.03
  9
$DIMCEN
 40
1.5
  9
$DIMTSZ
 40
1.0
  9
$DIMTOL
 70
     0
  9
$DIMLIM
 70
     0
  9
$DIMTIH
 70
     0
  9
$DIMTOH
 70
     0
  9
$DIMSE1
 70
     0
  9
$DIMSE2
 70
     0
  9
$DIMTAD
 70
     0
  9
$DIMZIN
 70
     0
  9
$DIMBLK
  1

  9
$DIMASO
 70
     1
  9
$DIMSHO
 70
     0
  9
$DIMPOST
  1

  9
$DIMAPOST
  1

  9
$DIMALT
 70
     0
  9
$DIMALTD
 70
     2
  9
$DIMALTF
 40
25.4
  9
$DIMLFAC
 40
1.0
  9
$DIMTOFL
 70
     1
  9
$DIMTVP
 40
0.0
  9
$DIMTIX
 70
     1
  9
$DIMSOXD
 70
     0
  9
$DIMSAH
 70
     0
  9
$DIMBLK1
  1

  9
$DIMBLK2
  1

  9
$DIMSTYLE
  2
*UNNAMED
  9
$DIMCLRD
 70
     0
  9
$DIMCLRE
 70
     0
  9
$DIMCLRT
 70
     0
  9
$DIMTFAC
 40
116.666667
  9
$DIMGAP
 40
0.09
  9
$LUNITS
 70
     2
  9
$LUPREC
 70
     2
  9
$SKETCHINC
 40
1.0
  9
$FILLETRAD
 40
0.0
  9
$AUNITS
 70
     0
  9
$AUPREC
 70
     0
  9
$MENU
  1
acad
  9
$ELEVATION
 40
0.0
  9
$PELEVATION
 40
0.0
  9
$THICKNESS
 40
0.0
  9
$LIMCHECK
 70
     0
  9
$BLIPMODE
 70
     0
  9
$CHAMFERA
 40
0.0
  9
$CHAMFERB
 40
0.0
  9
$SKPOLY
 70
     0
  9
$TDCREATE
 40
2449965.484476504
  9
$TDUPDATE
 40
2450623.541441319
  9
$TDINDWG
 40
0.0044341435
  9
$TDUSRTIMER
 40
0.0044341435
  9
$USRTIMER
 70
     1
  9
$ANGBASE
 50
0.0
  9
$ANGDIR
 70
     0
  9
$PDMODE
 70
     0
  9
$PDSIZE
 40
0.0
  9
$PLINEWID
 40
0.0
  9
$COORDS
 70
     2
  9
$SPLFRAME
 70
     0
  9
$SPLINETYPE
 70
     6
  9
$SPLINESEGS
 70
     8
  9
$ATTDIA
 70
     0
  9
$ATTREQ
 70
     1
  9
$HANDLING
 70
     0
  9
$HANDSEED
  5
0
  9
$SURFTAB1
 70
     6
  9
$SURFTAB2
 70
     6
  9
$SURFTYPE
 70
     6
  9
$SURFU
 70
     6
  9
$SURFV
 70
     6
  9
$UCSNAME
  2

  9
$UCSORG
 10
0.0
 20
0.0
 30
0.0
  9
$UCSXDIR
 10
1.0
 20
0.0
 30
0.0
  9
$UCSYDIR
 10
0.0
 20
1.0
 30
0.0
  9
$PUCSNAME
  2

  9
$PUCSORG
 10
0.0
 20
0.0
 30
0.0
  9
$PUCSXDIR
 10
1.0
 20
0.0
 30
0.0
  9
$PUCSYDIR
 10
0.0
 20
1.0
 30
0.0
  9
$USERI1
 70
     0
  9
$USERI2
 70
     0
  9
$USERI3
 70
     0
  9
$USERI4
 70
     0
  9
$USERI5
 70
     0
  9
$USERR1
 40
0.0
  9
$USERR2
 40
0.0
  9
$USERR3
 40
0.0
  9
$USERR4
 40
0.0
  9
$USERR5
 40
0.0
  9
$WORLDVIEW
 70
     1
  9
$SHADEDGE
 70
     3
  9
$SHADEDIF
 70
    70
  9
$TILEMODE
 70
     1
  9
$MAXACTVP
 70
    16
  9
$PINSBASE
 10
0.0
 20
0.0
 30
0.0
  9
$PLIMCHECK
 70
     0
  9
$PEXTMIN
 10
1.000000E+20
 20
1.000000E+20
 30
1.000000E+20
  9
$PEXTMAX
 10
-1.000000E+20
 20
-1.000000E+20
 30
-1.000000E+20
  9
$PLIMMIN
 10
0.0
 20
0.0
  9
$PLIMMAX
 10
12.0
 20
9.0
  9
$UNITMODE
 70
     0
  9
$VISRETAIN
 70
     0
  9
$PLINEGEN
 70
     0
  9
$PSLTSCALE
 70
     0
  9
$TREEDEPTH
 70
  3020
  9
$DWGCODEPAGE
  3
iso8859-1
  0
ENDSEC
  0
SECTION
  2
TABLES
  0
TABLE
  2
VPORT
 70
     2
  0
VPORT
  2
*ACTIVE
 70
     0
 10
0.0
 20
0.0
 11
1.0
 21
1.0
 12
166.990107
 22
52.519906
 13
0.0
 23
0.0
 14
1.0
 24
1.0
 15
10.0
 25
10.0
 16
0.0
 26
0.0
 36
1.0
 17
0.0
 27
0.0
 37
0.0
 40
14.85
 41
1.611024
 42
50.0
 43
0.0
 44
0.0
 50
0.0
 51
0.0
 71
     0
 72
   100
 73
     1
 74
     0
 75
     0
 76
     0
 77
     0
 78
     2
  0
ENDTAB
  0
TABLE
  2
LTYPE
 70
     1
  0
LTYPE
  2
CONTINUOUS
 70
    64
  3
Solid line
 72
    65
 73
     0
 40
0.0
  0
ENDTAB
  0
TABLE
  2
LAYER
 70
     2
  0
LAYER
  2
0
 70
    64
 62
     7
  6
CONTINUOUS
  0
LAYER
  2
MESURA
 70
    64
 62
     7
  6
CONTINUOUS
  0
ENDTAB
  0
TABLE
  2
STYLE
 70
     2
  0
STYLE
  2
STANDARD
 70
     0
 40
0.0
 41
1.0
 50
0.0
 71
     0
 42
0.1
  3
txt
  4

  0
STYLE
  2
ROMANC
 70
    64
 40
0.0
 41
1.0
 50
0.0
 71
     0
 42
0.1
  3
romanc
  4

  0
ENDTAB
  0
TABLE
  2
VIEW
 70
     0
  0
ENDTAB
  0
TABLE
  2
UCS
 70
     0
  0
ENDTAB
  0
TABLE
  2
APPID
 70
     1
  0
APPID
  2
ACAD
 70
    64
  0
ENDTAB
  0
TABLE
  2
DIMSTYLE
 70
     0
  0
ENDTAB
  0
ENDSEC
  0
SECTION
  2
BLOCKS
  0
ENDSEC
  0
SECTION
  2
ENTITIES
  0
LINE
  8
0
 10
165.528256
 20
59.944906
 30
0.0
 11
155.028256
 21
59.944906
 31
0.0
  0
LINE
  8
0
 10
155.028256
 20
45.094906
 30
0.0
 11
165.528256
 21
45.094906
 31
0.0
  0
LINE
  8
0
 10
155.028256
 20
59.944906
 30
0.0
 11
155.028256
 21
45.094906
 31
0.0
  0
LINE
  8
0
 10
165.528256
 20
45.094906
 30
0.0
 11
165.528256
 21
59.944906
 31
0.0
  0
TEXT
  8
0
 10
160.930624
 20
49.485957
 30
0.0
 40
0.1
  1
0.1
  7
ROMANC
  0
TEXT
  8
0
 10
160.925997
 20
49.966872
 30
0.0
 40
0.1
  1
0.8
  7
ROMANC
  0
LINE
  8
MESURA
  6
BYBLOCK
 62
     0
 10
160.803402
 20
49.363654
 30
0.0
 11
161.003402
 21
49.563654
 31
0.0
  0
LINE
  8
MESURA
  6
BYBLOCK
 62
     0
 10
160.803402
 20
49.463654
 30
0.0
 11
161.003402
 21
49.663654
 31
0.0
  0
LINE
  8
MESURA
  6
BYBLOCK
 62
     0
 10
160.803402
 20
50.783654
 30
0.0
 11
161.003402
 21
50.983654
 31
0.0
  0
LINE
  8
MESURA
  6
BYBLOCK
 62
     0
 10
160.803402
 20
50.263654
 30
0.0
 11
161.003402
 21
50.463654
 31
0.0
  0
LINE
  8
0
 10
160.346373
 20
49.463654
 30
0.0
 11
161.509023
 21
49.463654
 31
0.0
  0
LINE
  8
0
 10
160.346373
 20
50.883654
 30
0.0
 11
161.509023
 21
50.883654
 31
0.0
  0
POLYLINE
  8
0
 66
     1
 10
0.0
 20
0.0
 30
0.0
 70
     1
  0
VERTEX
  8
0
 10
160.172458
 20
49.573654
 30
0.0
 42
0.22097
  0
VERTEX
  8
0
 10
160.180994
 20
49.535281
 30
0.0
 42
0.10574
  0
VERTEX
  8
0
 10
160.220313
 20
49.50174
 30
0.0
 42
0.06893
 70
     2
 50
331.606981
  0
VERTEX
  8
0
 10
160.274014
 20
49.481655
 30
0.0
 42
0.055122
 50
331.606981
  0
VERTEX
  8
0
 10
160.346373
 20
49.473654
 30
0.0
 42
0.055122
  0
VERTEX
  8
0
 10
160.418732
 20
49.481655
 30
0.0
 42
0.06893
  0
VERTEX
  8
0
 10
160.472433
 20
49.50174
 30
0.0
 42
0.10574
 70
     2
 50
28.393019
  0
VERTEX
  8
0
 10
160.511752
 20
49.535281
 30
0.0
 42
0.22097
 50
28.393019
  0
VERTEX
  8
0
 10
160.520289
 20
49.573654
 30
0.0
  0
VERTEX
  8
0
 10
160.646373
 20
49.573654
 30
0.0
  0
VERTEX
  8
0
 10
160.646373
 20
50.363654
 30
0.0
 42
0.060597
  0
VERTEX
  8
0
 10
160.621314
 20
50.569664
 30
0.0
 42
0.074008
  0
VERTEX
  8
0
 10
160.556987
 20
50.726229
 30
0.0
 42
0.106898
 70
     2
 50
120.801446
  0
VERTEX
  8
0
 10
160.449673
 20
50.84129
 30
0.0
 42
0.152986
 50
120.801446
  0
VERTEX
  8
0
 10
160.346373
 20
50.873654
 30
0.0
 42
0.152986
  0
VERTEX
  8
0
 10
160.243073
 20
50.84129
 30
0.0
 42
0.106898
  0
VERTEX
  8
0
 10
160.135759
 20
50.726229
 30
0.0
 42
0.074008
 70
     2
 50
239.198554
  0
VERTEX
  8
0
 10
160.071432
 20
50.569664
 30
0.0
 42
0.060597
 50
239.198554
  0
VERTEX
  8
0
 10
160.046373
 20
50.363654
 30
0.0
  0
VERTEX
  8
0
 10
160.046373
 20
49.573654
 30
0.0
  0
SEQEND
  8
0
  0
POLYLINE
  8
0
 66
     1
 10
0.0
 20
0.0
 30
0.0
 70
     1
  0
VERTEX
  8
0
 10
160.152128
 20
49.553654
 30
0.0
 42
0.126477
  0
VERTEX
  8
0
 10
160.165119
 20
49.523116
 30
0.0
 42
0.10574
  0
VERTEX
  8
0
 10
160.210803
 20
49.484146
 30
0.0
 42
0.06893
 70
     2
 50
331.606981
  0
VERTEX
  8
0
 10
160.269644
 20
49.462139
 30
0.0
 42
0.055122
 50
331.606981
  0
VERTEX
  8
0
 10
160.346373
 20
49.453654
 30
0.0
 42
0.055122
  0
VERTEX
  8
0
 10
160.423102
 20
49.462139
 30
0.0
 42
0.06893
  0
VERTEX
  8
0
 10
160.481943
 20
49.484146
 30
0.0
 42
0.10574
 70
     2
 50
28.393019
  0
VERTEX
  8
0
 10
160.527627
 20
49.523116
 30
0.0
 42
0.126477
 50
28.393019
  0
VERTEX
  8
0
 10
160.540619
 20
49.553654
 30
0.0
  0
VERTEX
  8
0
 10
160.666373
 20
49.553654
 30
0.0
  0
VERTEX
  8
0
 10
160.666373
 20
50.363654
 30
0.0
 42
0.060597
  0
VERTEX
  8
0
 10
160.640731
 20
50.574459
 30
0.0
 42
0.074008
  0
VERTEX
  8
0
 10
160.574166
 20
50.73647
 30
0.0
 42
0.106898
 70
     2
 50
120.801446
  0
VERTEX
  8
0
 10
160.461085
 20
50.857714
 30
0.0
 42
0.152986
 50
120.801446
  0
VERTEX
  8
0
 10
160.346373
 20
50.893654
 30
0.0
 42
0.152986
  0
VERTEX
  8
0
 10
160.231661
 20
50.857714
 30
0.0
 42
0.106898
  0
VERTEX
  8
0
 10
160.11858
 20
50.73647
 30
0.0
 42
0.074008
 70
     2
 50
239.198554
  0
VERTEX
  8
0
 10
160.052016
 20
50.574459
 30
0.0
 42
0.060597
 50
239.198554
  0
VERTEX
  8
0
 10
160.026373
 20
50.363654
 30
0.0
  0
VERTEX
  8
0
 10
160.026373
 20
49.553654
 30
0.0
  0
SEQEND
  8
0
  0
POLYLINE
  8
0
 66
     1
 10
0.0
 20
0.0
 30
0.0
 70
     1
  0
VERTEX
  8
0
 10
160.161373
 20
49.563654
 30
0.0
 42
0.164934
  0
VERTEX
  8
0
 10
160.173057
 20
49.529198
 30
0.0
 42
0.10574
  0
VERTEX
  8
0
 10
160.215558
 20
49.492943
 30
0.0
 42
0.06893
 70
     2
 50
331.606981
  0
VERTEX
  8
0
 10
160.271829
 20
49.471897
 30
0.0
 42
0.055122
 50
331.606981
  0
VERTEX
  8
0
 10
160.346373
 20
49.463654
 30
0.0
 42
0.055122
  0
VERTEX
  8
0
 10
160.420917
 20
49.471897
 30
0.0
 42
0.06893
  0
VERTEX
  8
0
 10
160.477188
 20
49.492943
 30
0.0
 42
0.10574
 70
     2
 50
28.393019
  0
VERTEX
  8
0
 10
160.519689
 20
49.529198
 30
0.0
 42
0.164934
 50
28.393019
  0
VERTEX
  8
0
 10
160.531373
 20
49.563654
 30
0.0
  0
VERTEX
  8
0
 10
160.656373
 20
49.563654
 30
0.0
  0
VERTEX
  8
0
 10
160.656373
 20
50.363654
 30
0.0
 42
0.060597
  0
VERTEX
  8
0
 10
160.631022
 20
50.572062
 30
0.0
 42
0.074008
  0
VERTEX
  8
0
 10
160.565576
 20
50.731349
 30
0.0
 42
0.106898
 70
     2
 50
120.801446
  0
VERTEX
  8
0
 10
160.455379
 20
50.849502
 30
0.0
 42
0.152986
 50
120.801446
  0
VERTEX
  8
0
 10
160.346373
 20
50.883654
 30
0.0
 42
0.152986
  0
VERTEX
  8
0
 10
160.237367
 20
50.849502
 30
0.0
 42
0.106898
  0
VERTEX
  8
0
 10
160.12717
 20
50.731349
 30
0.0
 42
0.074008
 70
     2
 50
239.198554
  0
VERTEX
  8
0
 10
160.061724
 20
50.572062
 30
0.0
 42
0.060597
 50
239.198554
  0
VERTEX
  8
0
 10
160.036373
 20
50.363654
 30
0.0
  0
VERTEX
  8
0
 10
160.036373
 20
49.563654
 30
0.0
  0
SEQEND
  8
0
  0
TEXT
  8
0
 10
160.18102
 20
48.931056
 30
0.0
 40
0.1
  1
0.62
  7
ROMANC
  0
TEXT
  8
0
 10
160.194901
 20
49.171513
 30
0.0
 40
0.1
  1
0.37
  7
ROMANC
  0
LINE
  8
MESURA
  6
BYBLOCK
 62
     0
 10
160.061373
 20
49.199699
 30
0.0
 11
160.261373
 21
49.399699
 31
0.0
  0
LINE
  8
MESURA
  6
BYBLOCK
 62
     0
 10
160.431373
 20
49.199699
 30
0.0
 11
160.631373
 21
49.399699
 31
0.0
  0
LINE
  8
MESURA
  6
BYBLOCK
 62
     0
 10
159.936373
 20
48.994106
 30
0.0
 11
160.136373
 21
49.194106
 31
0.0
  0
LINE
  8
MESURA
  6
BYBLOCK
 62
     0
 10
160.556373
 20
48.994106
 30
0.0
 11
160.756373
 21
49.194106
 31
0.0
  0
LINE
  8
0
 10
160.656373
 20
50.363654
 30
0.0
 11
160.903402
 21
50.363654
 31
0.0
  0
LINE
  8
0
 10
160.656373
 20
49.563654
 30
0.0
 11
160.903402
 21
49.563654
 31
0.0
  0
LINE
  8
0
 10
160.903402
 20
50.883654
 30
0.0
 11
160.903402
 21
49.463654
 31
0.0
  0
LINE
  8
0
 10
160.656373
 20
49.563654
 30
0.0
 11
160.656373
 21
49.094106
 31
0.0
  0
LINE
  8
0
 10
160.036373
 20
49.563654
 30
0.0
 11
160.036373
 21
49.094106
 31
0.0
  0
LINE
  8
0
 10
160.036373
 20
49.094106
 30
0.0
 11
160.656373
 21
49.094106
 31
0.0
  0
LINE
  8
0
 10
160.161373
 20
49.299699
 30
0.0
 11
160.531373
 21
49.299699
 31
0.0
  0
POLYLINE
  8
0
 66
     1
 10
0.0
 20
0.0
 30
0.0
  0
VERTEX
  8
0
 10
160.036373
 20
50.363654
 30
0.0
 42
0.060597
  0
VERTEX
  8
0
 10
160.036373
 20
50.363654
 30
0.0
 42
0.060597
  0
SEQEND
  8
0
  0
LINE
  8
0
 10
160.531373
 20
49.299699
 30
0.0
 11
160.531373
 21
49.563654
 31
0.0
  0
LINE
  8
0
 10
160.161373
 20
49.563654
 30
0.0
 11
160.161373
 21
49.299699
 31
0.0
  0
TEXT
  8
0
 10
160.944506
 20
50.586512
 30
0.0
 40
0.1
  1
0.32
  7
ROMANC
  0
TEXT
  8
0
 10
161.643211
 20
50.133342
 30
0.0
 40
0.1
  1
1.22
  7
ROMANC
  0
LINE
  8
MESURA
  6
BYBLOCK
 62
     0
 10
161.409023
 20
50.783654
 30
0.0
 11
161.609023
 21
50.983654
 31
0.0
  0
LINE
  8
MESURA
  6
BYBLOCK
 62
     0
 10
161.409023
 20
49.363654
 30
0.0
 11
161.609023
 21
49.563654
 31
0.0
  0
LINE
  8
0
 10
161.509023
 20
50.883654
 30
0.0
 11
161.509023
 21
49.463654
 31
0.0
  0
TEXT
  8
0
 10
157.571323
 20
56.456461
 30
0.0
 40
0.3
  1
S =  078 dm
  7
ROMANC
  0
TEXT
  8
0
 10
157.558229
 20
57.540765
 30
0.0
 40
0.3
  1
TIPUS   NT78
  7
ROMANC
  0
TEXT
  8
0
 10
157.595766
 20
55.897358
 30
0.0
 40
0.3
  1
P = 36.3 dm
  7
ROMANC
  0
TEXT
  8
0
 10
157.558229
 20
57.055051
 30
0.0
 40
0.3
  1
ESCALA  1:50
  7
ROMANC
  0
TEXT
  8
0
 10
160.960428
 20
56.769773
 30
0.0
 40
0.1
  1
2
  7
ROMANC
  0
LINE
  8
0
 10
160.656373
 20
51.230477
 30
0.0
 11
160.656373
 21
50.363654
 31
0.0
  0
LINE
  8
0
 10
160.036373
 20
51.230477
 30
0.0
 11
160.036373
 21
50.363654
 31
0.0
  0
LINE
  8
0
 10
160.036373
 20
51.230477
 30
0.0
 11
160.656373
 21
51.230477
 31
0.0
  0
LINE
  8
MESURA
  6
BYBLOCK
 62
     0
 10
160.556373
 20
51.130477
 30
0.0
 11
160.756373
 21
51.330477
 31
0.0
  0
LINE
  8
MESURA
  6
BYBLOCK
 62
     0
 10
159.936373
 20
51.130477
 30
0.0
 11
160.136373
 21
51.330477
 31
0.0
  0
TEXT
  8
0
 10
160.177163
 20
51.267063
 30
0.0
 40
0.1
  1
0.62
  7
ROMANC
  0
ENDSEC
  0
EOF
