  0
SECTION
  2
HEADER
  9
$ACADVER
  1
AC1009
  9
$INSBASE
 10
0.0
 20
0.0
 30
0.0
  9
$EXTMIN
 10
318.829805
 20
29.85788
 30
-0.001526
  9
$EXTMAX
 10
329.371339
 20
44.72551
 30
0.0
  9
$LIMMIN
 10
0.0
 20
0.0
  9
$LIMMAX
 10
410.0
 20
287.0
  9
$ORTHOMODE
 70
     1
  9
$REGENMODE
 70
     1
  9
$FILLMODE
 70
     1
  9
$QTEXTMODE
 70
     0
  9
$MIRRTEXT
 70
     1
  9
$DRAGMODE
 70
     2
  9
$LTSCALE
 40
25.0
  9
$OSMODE
 70
     0
  9
$ATTMODE
 70
     1
  9
$TEXTSIZE
 40
0.1
  9
$TRACEWID
 40
1.0
  9
$TEXTSTYLE
  7
ROMANC
  9
$CLAYER
  8
0
  9
$CELTYPE
  6
BYLAYER
  9
$CECOLOR
 62
   256
  9
$DIMSCALE
 40
1.5
  9
$DIMASZ
 40
0.1
  9
$DIMEXO
 40
0.01
  9
$DIMDLI
 40
7.0
  9
$DIMRND
 40
0.0
  9
$DIMDLE
 40
0.0
  9
$DIMEXE
 40
0.01
  9
$DIMTP
 40
0.0
  9
$DIMTM
 40
0.0
  9
$DIMTXT
 40
0.05
  9
$DIMCEN
 40
0.0
  9
$DIMTSZ
 40
0.0
  9
$DIMTOL
 70
     0
  9
$DIMLIM
 70
     0
  9
$DIMTIH
 70
     0
  9
$DIMTOH
 70
     0
  9
$DIMSE1
 70
     0
  9
$DIMSE2
 70
     0
  9
$DIMTAD
 70
     1
  9
$DIMZIN
 70
     0
  9
$DIMBLK
  1

  9
$DIMASO
 70
     1
  9
$DIMSHO
 70
     0
  9
$DIMPOST
  1

  9
$DIMAPOST
  1

  9
$DIMALT
 70
     0
  9
$DIMALTD
 70
     2
  9
$DIMALTF
 40
25.4
  9
$DIMLFAC
 40
1.0
  9
$DIMTOFL
 70
     1
  9
$DIMTVP
 40
0.0
  9
$DIMTIX
 70
     1
  9
$DIMSOXD
 70
     0
  9
$DIMSAH
 70
     0
  9
$DIMBLK1
  1

  9
$DIMBLK2
  1

  9
$DIMSTYLE
  2
MERITXELL
  9
$DIMCLRD
 70
     0
  9
$DIMCLRE
 70
     0
  9
$DIMCLRT
 70
     0
  9
$DIMTFAC
 40
70.0
  9
$DIMGAP
 40
0.025
  9
$LUNITS
 70
     2
  9
$LUPREC
 70
     2
  9
$SKETCHINC
 40
1.0
  9
$FILLETRAD
 40
0.0
  9
$AUNITS
 70
     0
  9
$AUPREC
 70
     0
  9
$MENU
  1
acad
  9
$ELEVATION
 40
0.0
  9
$PELEVATION
 40
0.0
  9
$THICKNESS
 40
0.0
  9
$LIMCHECK
 70
     0
  9
$BLIPMODE
 70
     0
  9
$CHAMFERA
 40
0.0
  9
$CHAMFERB
 40
0.0
  9
$SKPOLY
 70
     0
  9
$TDCREATE
 40
2450927.46195
  9
$TDUPDATE
 40
2451122.576076
  9
$TDINDWG
 40
0.061317
  9
$TDUSRTIMER
 40
0.061317
  9
$USRTIMER
 70
     1
  9
$ANGBASE
 50
0.0
  9
$ANGDIR
 70
     0
  9
$PDMODE
 70
     0
  9
$PDSIZE
 40
0.0
  9
$PLINEWID
 40
0.0
  9
$COORDS
 70
     2
  9
$SPLFRAME
 70
     0
  9
$SPLINETYPE
 70
     6
  9
$SPLINESEGS
 70
     8
  9
$ATTDIA
 70
     0
  9
$ATTREQ
 70
     1
  9
$HANDLING
 70
     1
  9
$HANDSEED
  5
304
  9
$SURFTAB1
 70
     6
  9
$SURFTAB2
 70
     6
  9
$SURFTYPE
 70
     6
  9
$SURFU
 70
     6
  9
$SURFV
 70
     6
  9
$UCSNAME
  2

  9
$UCSORG
 10
0.0
 20
0.0
 30
0.0
  9
$UCSXDIR
 10
1.0
 20
0.0
 30
0.0
  9
$UCSYDIR
 10
0.0
 20
1.0
 30
0.0
  9
$PUCSNAME
  2

  9
$PUCSORG
 10
0.0
 20
0.0
 30
0.0
  9
$PUCSXDIR
 10
1.0
 20
0.0
 30
0.0
  9
$PUCSYDIR
 10
0.0
 20
1.0
 30
0.0
  9
$USERI1
 70
     0
  9
$USERI2
 70
     0
  9
$USERI3
 70
     0
  9
$USERI4
 70
     0
  9
$USERI5
 70
     0
  9
$USERR1
 40
0.0
  9
$USERR2
 40
0.0
  9
$USERR3
 40
0.0
  9
$USERR4
 40
0.0
  9
$USERR5
 40
0.0
  9
$WORLDVIEW
 70
     1
  9
$SHADEDGE
 70
     3
  9
$SHADEDIF
 70
    70
  9
$TILEMODE
 70
     1
  9
$MAXACTVP
 70
    16
  9
$PLIMCHECK
 70
     0
  9
$PEXTMIN
 10
1.000000E+020
 20
1.000000E+020
 30
1.000000E+020
  9
$PEXTMAX
 10
-1.000000E+020
 20
-1.000000E+020
 30
-1.000000E+020
  9
$PLIMMIN
 10
0.0
 20
0.0
  9
$PLIMMAX
 10
12.0
 20
9.0
  9
$UNITMODE
 70
     0
  9
$VISRETAIN
 70
     0
  9
$PLINEGEN
 70
     0
  9
$PSLTSCALE
 70
     0
  0
ENDSEC
  0
SECTION
  2
TABLES
  0
TABLE
  2
VPORT
 70
     6
  0
VPORT
  2
*ACTIVE
 70
     0
 10
0.0
 20
0.0
 11
1.0
 21
1.0
 12
324.100572
 22
37.291695
 13
0.0
 23
0.0
 14
1.0
 24
1.0
 15
10.0
 25
10.0
 16
0.0
 26
0.0
 36
1.0
 17
0.0
 27
0.0
 37
0.0
 40
15.002178
 41
1.732628
 42
50.0
 43
0.0
 44
0.0
 50
0.0
 51
0.0
 71
     0
 72
   100
 73
     1
 74
     0
 75
     0
 76
     0
 77
     0
 78
     1
  0
ENDTAB
  0
TABLE
  2
LTYPE
 70
     1
  0
LTYPE
  2
CONTINUOUS
 70
     0
  3
Solid line
 72
    65
 73
     0
 40
0.0
  0
ENDTAB
  0
TABLE
  2
LAYER
 70
     2
  0
LAYER
  2
0
 70
     0
 62
     7
  6
CONTINUOUS
  0
LAYER
  2
DEFPOINTS
 70
     0
 62
     7
  6
CONTINUOUS
  0
ENDTAB
  0
TABLE
  2
STYLE
 70
     2
  0
STYLE
  2
STANDARD
 70
     0
 40
0.0
 41
1.0
 50
0.0
 71
     0
 42
0.1
  3
txt
  4

  0
STYLE
  2
ROMANC
 70
     0
 40
0.0
 41
1.0
 50
0.0
 71
     0
 42
0.1
  3
romanc
  4

  0
ENDTAB
  0
TABLE
  2
VIEW
 70
     0
  0
ENDTAB
  0
TABLE
  2
UCS
 70
     0
  0
ENDTAB
  0
TABLE
  2
APPID
 70
     1
  0
APPID
  2
ACAD
 70
     0
  0
ENDTAB
  0
TABLE
  2
DIMSTYLE
 70
     1
  0
DIMSTYLE
  2
MERITXELL
 70
     0
  3

  4

  5

  6

  7

 40
1.5
 41
0.1
 42
0.01
 43
7.0
 44
0.01
 45
0.0
 46
0.0
 47
0.0
 48
0.0
140
0.05
141
0.1
142
0.0
143
25.4
144
1.0
145
0.0
146
70.0
147
0.09
 71
     0
 72
     0
 73
     0
 74
     0
 75
     0
 76
     0
 77
     1
 78
     0
170
     0
171
     2
172
     1
173
     0
174
     1
175
     0
176
     0
177
     0
178
     0
  0
ENDTAB
  0
ENDSEC
  0
SECTION
  2
BLOCKS
  0
BLOCK
  8
0
  2
$MODEL_SPACE
 70
     0
 10
0.0
 20
0.0
 30
0.0
  3
$MODEL_SPACE
  1

  0
ENDBLK
  5
24
  8
0
  0
BLOCK
 67
     1
  8
0
  2
$PAPER_SPACE
 70
     0
 10
0.0
 20
0.0
 30
0.0
  3
$PAPER_SPACE
  1

  0
ENDBLK
  5
22
 67
     1
  8
0
  0
BLOCK
  8
0
  2
*D0
 70
     1
 10
0.0
 20
0.0
 30
0.0
  3
*D0
  1

  0
LINE
  5
253
  8
0
  6
BYBLOCK
 62
     0
 10
324.868272
 20
35.368765
 30
0.0
 11
325.195989
 21
35.368765
 31
0.0
  0
LINE
  5
254
  8
0
  6
BYBLOCK
 62
     0
 10
324.868272
 20
34.568765
 30
0.0
 11
325.195989
 21
34.568765
 31
0.0
  0
LINE
  5
255
  8
0
  6
BYBLOCK
 62
     0
 10
325.180989
 20
35.218765
 30
0.0
 11
325.180989
 21
34.718765
 31
0.0
  0
SOLID
  5
256
  8
0
  6
BYBLOCK
 62
     0
 10
325.155989
 20
35.218765
 30
0.0
 11
325.205989
 21
35.218765
 31
0.0
 12
325.180989
 22
35.368765
 32
0.0
 13
325.180989
 23
35.368765
 33
0.0
  0
SOLID
  5
257
  8
0
  6
BYBLOCK
 62
     0
 10
325.155989
 20
34.718765
 30
0.0
 11
325.205989
 21
34.718765
 31
0.0
 12
325.180989
 22
34.568765
 32
0.0
 13
325.180989
 23
34.568765
 33
0.0
  0
TEXT
  8
0
  40
0.075
  5
2FA
  62
0
  72
0
  71
0
 10
324.956
 20
34.8360
 30
0.000000
  1
0.80
  7
ROMANC
  0
POINT
  5
259
  8
DEFPOINTS
  6
BYBLOCK
 62
     0
 10
324.853272
 20
35.368765
 30
0.0
  0
POINT
  5
25A
  8
DEFPOINTS
  6
BYBLOCK
 62
     0
 10
324.853272
 20
34.568765
 30
0.0
  0
POINT
  5
25B
  8
DEFPOINTS
  6
BYBLOCK
 62
     0
 10
325.180989
 20
34.568765
 30
0.0
  0
ENDBLK
  5
25C
  8
0
  0
BLOCK
  8
0
  2
*D1
 70
     1
 10
0.0
 20
0.0
 30
0.0
  3
*D1
  1

  0
LINE
  5
27C
  8
0
  6
BYBLOCK
 62
     0
 10
324.718272
 20
34.568765
 30
0.0
 11
325.195989
 21
34.568765
 31
0.0
  0
LINE
  5
27D
  8
0
  6
BYBLOCK
 62
     0
 10
324.468272
 20
34.468765
 30
0.0
 11
325.195989
 21
34.468765
 31
0.0
  0
LINE
  5
27E
  8
0
  6
BYBLOCK
 62
     0
 10
325.180989
 20
34.718765
 30
0.0
 11
325.180989
 21
34.868765
 31
0.0
  0
LINE
  5
27F
  8
0
  6
BYBLOCK
 62
     0
 10
325.180989
 20
34.318765
 30
0.0
 11
325.180989
 21
34.168765
 31
0.0
  0
TEXT
  8
0
  40
0.075
  5
2FB
  62
0
  72
0
  71
0
 10
324.956
 20
34.1797
 30
0.000000
  1
0.10
  7
ROMANC
  0
LINE
  5
281
  8
0
  6
BYBLOCK
 62
     0
 10
325.180989
 20
34.568765
 30
0.0
 11
325.180989
 21
34.468765
 31
0.0
  0
LINE
  5
282
  8
0
  6
BYBLOCK
 62
     0
 10
325.180989
 20
34.568765
 30
0.0
 11
325.180989
 21
34.468765
 31
0.0
  0
SOLID
  5
283
  8
0
  6
BYBLOCK
 62
     0
 10
325.155989
 20
34.718765
 30
0.0
 11
325.205989
 21
34.718765
 31
0.0
 12
325.180989
 22
34.568765
 32
0.0
 13
325.180989
 23
34.568765
 33
0.0
  0
SOLID
  5
284
  8
0
  6
BYBLOCK
 62
     0
 10
325.155989
 20
34.318765
 30
0.0
 11
325.205989
 21
34.318765
 31
0.0
 12
325.180989
 22
34.468765
 32
0.0
 13
325.180989
 23
34.468765
 33
0.0
  0
POINT
  5
285
  8
DEFPOINTS
  6
BYBLOCK
 62
     0
 10
324.703272
 20
34.568765
 30
0.0
  0
POINT
  5
286
  8
DEFPOINTS
  6
BYBLOCK
 62
     0
 10
324.453272
 20
34.468765
 30
0.0
  0
POINT
  5
287
  8
DEFPOINTS
  6
BYBLOCK
 62
     0
 10
325.180989
 20
34.468765
 30
0.0
  0
ENDBLK
  5
288
  8
0
  0
BLOCK
  8
0
  2
*D2
 70
     1
 10
0.0
 20
0.0
 30
0.0
  3
*D2
  1

  0
LINE
  5
28B
  8
0
  6
BYBLOCK
 62
     0
 10
324.468272
 20
35.548765
 30
0.0
 11
325.524058
 21
35.548765
 31
0.0
  0
LINE
  5
28C
  8
0
  6
BYBLOCK
 62
     0
 10
324.468272
 20
34.468765
 30
0.0
 11
325.524058
 21
34.468765
 31
0.0
  0
LINE
  5
28D
  8
0
  6
BYBLOCK
 62
     0
 10
325.509058
 20
35.398765
 30
0.0
 11
325.509058
 21
34.618765
 31
0.0
  0
SOLID
  5
28E
  8
0
  6
BYBLOCK
 62
     0
 10
325.484058
 20
35.398765
 30
0.0
 11
325.534058
 21
35.398765
 31
0.0
 12
325.509058
 22
35.548765
 32
0.0
 13
325.509058
 23
35.548765
 33
0.0
  0
SOLID
  5
28F
  8
0
  6
BYBLOCK
 62
     0
 10
325.484058
 20
34.618765
 30
0.0
 11
325.534058
 21
34.618765
 31
0.0
 12
325.509058
 22
34.468765
 32
0.0
 13
325.509058
 23
34.468765
 33
0.0
  0
TEXT
  8
0
  40
0.075
  5
2FC
  62
0
  72
0
  71
0
 10
325.284
 20
34.8760
 30
0.000000
  1
1.08
  7
ROMANC
  0
POINT
  5
291
  8
DEFPOINTS
  6
BYBLOCK
 62
     0
 10
324.453272
 20
35.548765
 30
0.0
  0
POINT
  5
292
  8
DEFPOINTS
  6
BYBLOCK
 62
     0
 10
324.453272
 20
34.468765
 30
0.0
  0
POINT
  5
293
  8
DEFPOINTS
  6
BYBLOCK
 62
     0
 10
325.509058
 20
34.468765
 30
0.0
  0
ENDBLK
  5
294
  8
0
  0
BLOCK
  8
0
  2
*D3
 70
     1
 10
0.0
 20
0.0
 30
0.0
  3
*D3
  1

  0
LINE
  5
298
  8
0
  6
BYBLOCK
 62
     0
 10
324.203272
 20
34.553765
 30
0.0
 11
324.203272
 21
34.178216
 31
0.0
  0
LINE
  5
299
  8
0
  6
BYBLOCK
 62
     0
 10
324.703272
 20
34.553765
 30
0.0
 11
324.703272
 21
34.178216
 31
0.0
  0
LINE
  5
29A
  8
0
  6
BYBLOCK
 62
     0
 10
324.353272
 20
34.193216
 30
0.0
 11
324.553272
 21
34.193216
 31
0.0
  0
SOLID
  5
29B
  8
0
  6
BYBLOCK
 62
     0
 10
324.353272
 20
34.218216
 30
0.0
 11
324.353272
 21
34.168216
 31
0.0
 12
324.203272
 22
34.193216
 32
0.0
 13
324.203272
 23
34.193216
 33
0.0
  0
SOLID
  5
29C
  8
0
  6
BYBLOCK
 62
     0
 10
324.553272
 20
34.218216
 30
0.0
 11
324.553272
 21
34.168216
 31
0.0
 12
324.703272
 22
34.193216
 32
0.0
 13
324.703272
 23
34.193216
 33
0.0
  0
TEXT
  8
0
  40
0.075
  5
2FD
  62
0
  72
0
  71
0
 10
324.303
 20
34.1355
 30
0.000000
  1
0.50
  7
ROMANC
  0
POINT
  5
29E
  8
DEFPOINTS
  6
BYBLOCK
 62
     0
 10
324.203272
 20
34.568765
 30
0.0
  0
POINT
  5
29F
  8
DEFPOINTS
  6
BYBLOCK
 62
     0
 10
324.703272
 20
34.568765
 30
0.0
  0
POINT
  5
2A0
  8
DEFPOINTS
  6
BYBLOCK
 62
     0
 10
324.703272
 20
34.193216
 30
0.0
  0
ENDBLK
  5
2A1
  8
0
  0
BLOCK
  8
0
  2
*D4
 70
     1
 10
0.0
 20
0.0
 30
0.0
  3
*D4
  1

  0
LINE
  5
2A5
  8
0
  6
BYBLOCK
 62
     0
 10
324.053272
 20
34.553765
 30
0.0
 11
324.053272
 21
33.909967
 31
0.0
  0
LINE
  5
2A6
  8
0
  6
BYBLOCK
 62
     0
 10
324.853272
 20
34.553765
 30
0.0
 11
324.853272
 21
33.909967
 31
0.0
  0
LINE
  5
2A7
  8
0
  6
BYBLOCK
 62
     0
 10
324.203272
 20
33.924967
 30
0.0
 11
324.703272
 21
33.924967
 31
0.0
  0
SOLID
  5
2A8
  8
0
  6
BYBLOCK
 62
     0
 10
324.203272
 20
33.949967
 30
0.0
 11
324.203272
 21
33.899967
 31
0.0
 12
324.053272
 22
33.924967
 32
0.0
 13
324.053272
 23
33.924967
 33
0.0
  0
SOLID
  5
2A9
  8
0
  6
BYBLOCK
 62
     0
 10
324.703272
 20
33.949967
 30
0.0
 11
324.703272
 21
33.899967
 31
0.0
 12
324.853272
 22
33.924967
 32
0.0
 13
324.853272
 23
33.924967
 33
0.0
  0
TEXT
  8
0
  40
0.075
  5
2FE
  62
0
  72
0
  71
0
 10
324.303
 20
33.8672
 30
0.000000
  1
0.80
  7
ROMANC
  0
POINT
  5
2AB
  8
DEFPOINTS
  6
BYBLOCK
 62
     0
 10
324.053272
 20
34.568765
 30
0.0
  0
POINT
  5
2AC
  8
DEFPOINTS
  6
BYBLOCK
 62
     0
 10
324.853272
 20
34.568765
 30
0.0
  0
POINT
  5
2AD
  8
DEFPOINTS
  6
BYBLOCK
 62
     0
 10
324.853272
 20
33.924967
 30
0.0
  0
ENDBLK
  5
2AE
  8
0
  0
ENDSEC
  0
SECTION
  2
ENTITIES
  0
LINE
  5
27
  8
0
 10
329.348696
 20
29.863623
 30
0.0
 11
329.348696
 21
44.713623
 31
0.0
  0
LINE
  5
28
  8
0
 10
318.848696
 20
44.713623
 30
0.0
 11
318.848696
 21
29.863623
 31
0.0
  0
LINE
  5
29
  8
0
 10
318.848696
 20
29.863623
 30
0.0
 11
329.348696
 21
29.863623
 31
0.0
  0
TEXT
  5
2A
  8
0
 10
321.773149
 20
42.309482
 30
0.0
 40
0.3
  1
TIPUS   NT77A
  7
ROMANC
  0
TEXT
  5
2D
  8
0
 10
321.735227
 20
40.527599
 30
0.0
 40
0.3
  1
P = 33,6 dm
  7
ROMANC
  0
TEXT
  5
2E
  8
0
 10
321.786243
 20
41.225178
 30
0.0
 40
0.3
  1
S = 77 dm
  7
ROMANC
  0
TEXT
  5
2F
  8
0
 10
321.773149
 20
41.823768
 30
0.0
 40
0.3
  1
ESCALA  1:50
  7
ROMANC
  0
TEXT
  5
30
  8
0
 10
324.719472
 20
41.531094
 30
0.0
 40
0.1
  1
2
  7
ROMANC
  0
LINE
  5
31
  8
0
 10
329.348696
 20
44.713623
 30
0.0
 11
318.848696
 21
44.713623
 31
0.0
  0
LINE
  5
2B7
  8
0
 10
323.688522
 20
34.578765
 30
0.0
 11
323.688522
 21
35.364951
 31
0.0
  0
ARC
  5
2B8
  8
0
 10
323.298522
 20
35.01432
 30
0.0
 40
0.524444
 50
41.957234
 51
138.042766
  0
LINE
  5
2B9
  8
0
 10
322.908522
 20
35.364951
 30
0.0
 11
322.908522
 21
34.578765
 31
0.0
  0
LINE
  5
2BA
  8
0
 10
322.908522
 20
34.578765
 30
0.0
 11
323.052554
 21
34.578765
 31
0.0
  0
ARC
  5
2BB
  8
0
 10
323.298522
 20
34.831265
 30
0.0
 40
0.3525
 50
225.75083
 51
314.24917
  0
LINE
  5
2BC
  8
0
 10
323.544489
 20
34.578765
 30
0.0
 11
323.688522
 21
34.578765
 31
0.0
  0
LINE
  5
2BD
  8
0
 10
323.708522
 20
34.558765
 30
0.0
 11
323.708522
 21
35.372538
 31
0.0
  0
ARC
  5
2BE
  8
0
 10
323.298522
 20
35.01432
 30
0.0
 40
0.544444
 50
41.143749
 51
138.856251
  0
LINE
  5
2BF
  8
0
 10
322.888522
 20
35.372538
 30
0.0
 11
322.888522
 21
34.558765
 31
0.0
  0
LINE
  5
2C0
  8
0
 10
322.888522
 20
34.558765
 30
0.0
 11
323.044553
 21
34.558765
 31
0.0
  0
ARC
  5
2C1
  8
0
 10
323.298522
 20
34.831265
 30
0.0
 40
0.3725
 50
227.015958
 51
312.984042
  0
LINE
  5
2C2
  8
0
 10
323.55249
 20
34.558765
 30
0.0
 11
323.708522
 21
34.558765
 31
0.0
  0
LINE
  5
2C3
  8
0
 10
323.698522
 20
34.568765
 30
0.0
 11
323.698522
 21
35.368765
 31
0.0
  0
ARC
  5
2C4
  8
0
 10
323.298522
 20
35.01432
 30
0.0
 40
0.534444
 50
41.544509
 51
138.455491
  0
LINE
  5
2C5
  8
0
 10
322.898522
 20
35.368765
 30
0.0
 11
322.898522
 21
34.568765
 31
0.0
  0
LINE
  5
2C6
  8
0
 10
322.898522
 20
34.568765
 30
0.0
 11
323.048522
 21
34.568765
 31
0.0
  0
ARC
  5
2C7
  8
0
 10
323.298522
 20
34.831265
 30
0.0
 40
0.3625
 50
226.397181
 51
313.602819
  0
LINE
  5
2C8
  8
0
 10
323.548522
 20
34.568765
 30
0.0
 11
323.698522
 21
34.568765
 31
0.0
  0
LINE
  5
2C9
  8
0
  6
BYBLOCK
 62
     0
 10
322.898522
 20
34.553765
 30
0.0
 11
322.898522
 21
33.909967
 31
0.0
  0
LINE
  5
2CA
  8
0
  6
BYBLOCK
 62
     0
 10
323.698522
 20
34.553765
 30
0.0
 11
323.698522
 21
33.909967
 31
0.0
  0
LINE
  5
2CB
  8
0
  6
BYBLOCK
 62
     0
 10
323.048522
 20
33.924967
 30
0.0
 11
323.548522
 21
33.924967
 31
0.0
  0
SOLID
  5
2CC
  8
0
  6
BYBLOCK
 62
     0
 10
323.048522
 20
33.949967
 30
0.0
 11
323.048522
 21
33.899967
 31
0.0
 12
322.898522
 22
33.924967
 32
0.0
 13
322.898522
 23
33.924967
 33
0.0
  0
SOLID
  5
2CD
  8
0
  6
BYBLOCK
 62
     0
 10
323.548522
 20
33.949967
 30
0.0
 11
323.548522
 21
33.899967
 31
0.0
 12
323.698522
 22
33.924967
 32
0.0
 13
323.698522
 23
33.924967
 33
0.0
  0
TEXT
  8
0
  40
0.075
  5
2FF
  62
0
  72
0
  71
0
 10
323.149
 20
33.8672
 30
0.000000
  1
0.80
  7
ROMANC
  0
POINT
  5
2CF
  8
DEFPOINTS
  6
BYBLOCK
 62
     0
 10
322.898522
 20
34.568765
 30
0.0
  0
POINT
  5
2D0
  8
DEFPOINTS
  6
BYBLOCK
 62
     0
 10
323.698522
 20
34.568765
 30
0.0
  0
POINT
  5
2D1
  8
DEFPOINTS
  6
BYBLOCK
 62
     0
 10
323.698522
 20
33.924967
 30
0.0
  0
LINE
  5
2D2
  8
0
  6
BYBLOCK
 62
     0
 10
323.048522
 20
34.553765
 30
0.0
 11
323.048522
 21
34.178216
 31
0.0
  0
LINE
  5
2D3
  8
0
  6
BYBLOCK
 62
     0
 10
323.548522
 20
34.553765
 30
0.0
 11
323.548522
 21
34.178216
 31
0.0
  0
LINE
  5
2D4
  8
0
  6
BYBLOCK
 62
     0
 10
323.198522
 20
34.193216
 30
0.0
 11
323.398522
 21
34.193216
 31
0.0
  0
SOLID
  5
2D5
  8
0
  6
BYBLOCK
 62
     0
 10
323.198522
 20
34.218216
 30
0.0
 11
323.198522
 21
34.168216
 31
0.0
 12
323.048522
 22
34.193216
 32
0.0
 13
323.048522
 23
34.193216
 33
0.0
  0
SOLID
  5
2D6
  8
0
  6
BYBLOCK
 62
     0
 10
323.398522
 20
34.218216
 30
0.0
 11
323.398522
 21
34.168216
 31
0.0
 12
323.548522
 22
34.193216
 32
0.0
 13
323.548522
 23
34.193216
 33
0.0
  0
TEXT
  8
0
  40
0.075
  5
300
  62
0
  72
0
  71
0
 10
323.149
 20
34.1355
 30
0.000000
  1
0.50
  7
ROMANC
  0
POINT
  5
2D8
  8
DEFPOINTS
  6
BYBLOCK
 62
     0
 10
323.048522
 20
34.568765
 30
0.0
  0
POINT
  5
2D9
  8
DEFPOINTS
  6
BYBLOCK
 62
     0
 10
323.548522
 20
34.568765
 30
0.0
  0
POINT
  5
2DA
  8
DEFPOINTS
  6
BYBLOCK
 62
     0
 10
323.548522
 20
34.193216
 30
0.0
  0
LINE
  5
2DB
  8
0
  6
BYBLOCK
 62
     0
 10
323.313522
 20
35.548765
 30
0.0
 11
324.369307
 21
35.548765
 31
0.0
  0
LINE
  5
2DC
  8
0
  6
BYBLOCK
 62
     0
 10
323.313522
 20
34.468765
 30
0.0
 11
324.369307
 21
34.468765
 31
0.0
  0
LINE
  5
2DD
  8
0
  6
BYBLOCK
 62
     0
 10
324.354307
 20
35.398765
 30
0.0
 11
324.354307
 21
34.618765
 31
0.0
  0
SOLID
  5
2DE
  8
0
  6
BYBLOCK
 62
     0
 10
324.329307
 20
35.398765
 30
0.0
 11
324.379307
 21
35.398765
 31
0.0
 12
324.354307
 22
35.548765
 32
0.0
 13
324.354307
 23
35.548765
 33
0.0
  0
SOLID
  5
2DF
  8
0
  6
BYBLOCK
 62
     0
 10
324.329307
 20
34.618765
 30
0.0
 11
324.379307
 21
34.618765
 31
0.0
 12
324.354307
 22
34.468765
 32
0.0
 13
324.354307
 23
34.468765
 33
0.0
  0
TEXT
  8
0
  40
0.075
  5
301
  62
0
  72
0
  71
0
 10
324.129
 20
34.8760
 30
0.000000
  1
1.08
  7
ROMANC
  0
POINT
  5
2E1
  8
DEFPOINTS
  6
BYBLOCK
 62
     0
 10
323.298522
 20
35.548765
 30
0.0
  0
POINT
  5
2E2
  8
DEFPOINTS
  6
BYBLOCK
 62
     0
 10
323.298522
 20
34.468765
 30
0.0
  0
POINT
  5
2E3
  8
DEFPOINTS
  6
BYBLOCK
 62
     0
 10
324.354307
 20
34.468765
 30
0.0
  0
LINE
  5
2E4
  8
0
  6
BYBLOCK
 62
     0
 10
323.563522
 20
34.568765
 30
0.0
 11
324.041238
 21
34.568765
 31
0.0
  0
LINE
  5
2E5
  8
0
  6
BYBLOCK
 62
     0
 10
323.313522
 20
34.468765
 30
0.0
 11
324.041238
 21
34.468765
 31
0.0
  0
LINE
  5
2E6
  8
0
  6
BYBLOCK
 62
     0
 10
324.026238
 20
34.718765
 30
0.0
 11
324.026238
 21
34.868765
 31
0.0
  0
LINE
  5
2E7
  8
0
  6
BYBLOCK
 62
     0
 10
324.026238
 20
34.318765
 30
0.0
 11
324.026238
 21
34.168765
 31
0.0
  0
TEXT
  8
0
  40
0.075
  5
302
  62
0
  72
0
  71
0
 10
323.801
 20
34.1797
 30
0.000000
  1
0.10
  7
ROMANC
  0
LINE
  5
2E9
  8
0
  6
BYBLOCK
 62
     0
 10
324.026238
 20
34.568765
 30
0.0
 11
324.026238
 21
34.468765
 31
0.0
  0
LINE
  5
2EA
  8
0
  6
BYBLOCK
 62
     0
 10
324.026238
 20
34.568765
 30
0.0
 11
324.026238
 21
34.468765
 31
0.0
  0
SOLID
  5
2EB
  8
0
  6
BYBLOCK
 62
     0
 10
324.001238
 20
34.718765
 30
0.0
 11
324.051238
 21
34.718765
 31
0.0
 12
324.026238
 22
34.568765
 32
0.0
 13
324.026238
 23
34.568765
 33
0.0
  0
SOLID
  5
2EC
  8
0
  6
BYBLOCK
 62
     0
 10
324.001238
 20
34.318765
 30
0.0
 11
324.051238
 21
34.318765
 31
0.0
 12
324.026238
 22
34.468765
 32
0.0
 13
324.026238
 23
34.468765
 33
0.0
  0
POINT
  5
2ED
  8
DEFPOINTS
  6
BYBLOCK
 62
     0
 10
323.548522
 20
34.568765
 30
0.0
  0
POINT
  5
2EE
  8
DEFPOINTS
  6
BYBLOCK
 62
     0
 10
323.298522
 20
34.468765
 30
0.0
  0
POINT
  5
2EF
  8
DEFPOINTS
  6
BYBLOCK
 62
     0
 10
324.026238
 20
34.468765
 30
0.0
  0
LINE
  5
2F0
  8
0
  6
BYBLOCK
 62
     0
 10
323.713522
 20
35.368765
 30
0.0
 11
324.041238
 21
35.368765
 31
0.0
  0
LINE
  5
2F1
  8
0
  6
BYBLOCK
 62
     0
 10
323.713522
 20
34.568765
 30
0.0
 11
324.041238
 21
34.568765
 31
0.0
  0
LINE
  5
2F2
  8
0
  6
BYBLOCK
 62
     0
 10
324.026238
 20
35.218765
 30
0.0
 11
324.026238
 21
34.718765
 31
0.0
  0
SOLID
  5
2F3
  8
0
  6
BYBLOCK
 62
     0
 10
324.001238
 20
35.218765
 30
0.0
 11
324.051238
 21
35.218765
 31
0.0
 12
324.026238
 22
35.368765
 32
0.0
 13
324.026238
 23
35.368765
 33
0.0
  0
SOLID
  5
2F4
  8
0
  6
BYBLOCK
 62
     0
 10
324.001238
 20
34.718765
 30
0.0
 11
324.051238
 21
34.718765
 31
0.0
 12
324.026238
 22
34.568765
 32
0.0
 13
324.026238
 23
34.568765
 33
0.0
  0
TEXT
  8
0
  40
0.075
  5
303
  62
0
  72
0
  71
0
 10
323.801
 20
34.8360
 30
0.000000
  1
0.80
  7
ROMANC
  0
POINT
  5
2F6
  8
DEFPOINTS
  6
BYBLOCK
 62
     0
 10
323.698522
 20
35.368765
 30
0.0
  0
POINT
  5
2F7
  8
DEFPOINTS
  6
BYBLOCK
 62
     0
 10
323.698522
 20
34.568765
 30
0.0
  0
POINT
  5
2F8
  8
DEFPOINTS
  6
BYBLOCK
 62
     0
 10
324.026238
 20
34.568765
 30
0.0
  0
ENDSEC
  0
EOF
