  0
SECTION
  2
HEADER
  9
$ACADVER
  1
AC1009
  9
$INSBASE
 10
138.966515
 20
27.971118
 30
0.0
  9
$EXTMIN
 10
138.966515
 20
27.971118
 30
0.0
  9
$EXTMAX
 10
149.466515
 20
42.821118
 30
0.0
  9
$LIMMIN
 10
0.0
 20
0.0
  9
$LIMMAX
 10
410.0
 20
287.0
  9
$ORTHOMODE
 70
     0
  9
$REGENMODE
 70
     1
  9
$FILLMODE
 70
     1
  9
$QTEXTMODE
 70
     0
  9
$MIRRTEXT
 70
     1
  9
$DRAGMODE
 70
     2
  9
$LTSCALE
 40
25.0
  9
$OSMODE
 70
    32
  9
$ATTMODE
 70
     1
  9
$TEXTSIZE
 40
0.1
  9
$TRACEWID
 40
1.0
  9
$TEXTSTYLE
  7
ROMANC
  9
$CLAYER
  8
0
  9
$CELTYPE
  6
BYLAYER
  9
$CECOLOR
 62
   256
  9
$DIMSCALE
 40
0.0
  9
$DIMASZ
 40
0.0
  9
$DIMEXO
 40
0.1
  9
$DIMDLI
 40
7.0
  9
$DIMRND
 40
0.0
  9
$DIMDLE
 40
0.0
  9
$DIMEXE
 40
1.8
  9
$DIMTP
 40
0.0
  9
$DIMTM
 40
0.0
  9
$DIMTXT
 40
0.03
  9
$DIMCEN
 40
1.5
  9
$DIMTSZ
 40
1.0
  9
$DIMTOL
 70
     0
  9
$DIMLIM
 70
     0
  9
$DIMTIH
 70
     0
  9
$DIMTOH
 70
     0
  9
$DIMSE1
 70
     0
  9
$DIMSE2
 70
     0
  9
$DIMTAD
 70
     0
  9
$DIMZIN
 70
     0
  9
$DIMBLK
  1

  9
$DIMASO
 70
     1
  9
$DIMSHO
 70
     0
  9
$DIMPOST
  1

  9
$DIMAPOST
  1

  9
$DIMALT
 70
     0
  9
$DIMALTD
 70
     2
  9
$DIMALTF
 40
25.4
  9
$DIMLFAC
 40
1.0
  9
$DIMTOFL
 70
     1
  9
$DIMTVP
 40
0.0
  9
$DIMTIX
 70
     1
  9
$DIMSOXD
 70
     0
  9
$DIMSAH
 70
     0
  9
$DIMBLK1
  1

  9
$DIMBLK2
  1

  9
$DIMSTYLE
  2
*UNNAMED
  9
$DIMCLRD
 70
     0
  9
$DIMCLRE
 70
     0
  9
$DIMCLRT
 70
     0
  9
$DIMTFAC
 40
116.666667
  9
$DIMGAP
 40
0.09
  9
$LUNITS
 70
     2
  9
$LUPREC
 70
     2
  9
$SKETCHINC
 40
1.0
  9
$FILLETRAD
 40
0.0
  9
$AUNITS
 70
     0
  9
$AUPREC
 70
     0
  9
$MENU
  1
acad
  9
$ELEVATION
 40
0.0
  9
$PELEVATION
 40
0.0
  9
$THICKNESS
 40
0.0
  9
$LIMCHECK
 70
     0
  9
$BLIPMODE
 70
     0
  9
$CHAMFERA
 40
0.0
  9
$CHAMFERB
 40
0.0
  9
$SKPOLY
 70
     0
  9
$TDCREATE
 40
2449967.675246528
  9
$TDUPDATE
 40
2450623.465078356
  9
$TDINDWG
 40
0.0038408565
  9
$TDUSRTIMER
 40
0.0038408565
  9
$USRTIMER
 70
     1
  9
$ANGBASE
 50
0.0
  9
$ANGDIR
 70
     0
  9
$PDMODE
 70
     0
  9
$PDSIZE
 40
0.0
  9
$PLINEWID
 40
0.0
  9
$COORDS
 70
     0
  9
$SPLFRAME
 70
     0
  9
$SPLINETYPE
 70
     6
  9
$SPLINESEGS
 70
     8
  9
$ATTDIA
 70
     0
  9
$ATTREQ
 70
     1
  9
$HANDLING
 70
     0
  9
$HANDSEED
  5
0
  9
$SURFTAB1
 70
     6
  9
$SURFTAB2
 70
     6
  9
$SURFTYPE
 70
     6
  9
$SURFU
 70
     6
  9
$SURFV
 70
     6
  9
$UCSNAME
  2

  9
$UCSORG
 10
0.0
 20
0.0
 30
0.0
  9
$UCSXDIR
 10
1.0
 20
0.0
 30
0.0
  9
$UCSYDIR
 10
0.0
 20
1.0
 30
0.0
  9
$PUCSNAME
  2

  9
$PUCSORG
 10
0.0
 20
0.0
 30
0.0
  9
$PUCSXDIR
 10
1.0
 20
0.0
 30
0.0
  9
$PUCSYDIR
 10
0.0
 20
1.0
 30
0.0
  9
$USERI1
 70
     0
  9
$USERI2
 70
     0
  9
$USERI3
 70
     0
  9
$USERI4
 70
     0
  9
$USERI5
 70
     0
  9
$USERR1
 40
0.0
  9
$USERR2
 40
0.0
  9
$USERR3
 40
0.0
  9
$USERR4
 40
0.0
  9
$USERR5
 40
0.0
  9
$WORLDVIEW
 70
     1
  9
$SHADEDGE
 70
     3
  9
$SHADEDIF
 70
    70
  9
$TILEMODE
 70
     1
  9
$MAXACTVP
 70
    16
  9
$PINSBASE
 10
0.0
 20
0.0
 30
0.0
  9
$PLIMCHECK
 70
     0
  9
$PEXTMIN
 10
1.000000E+20
 20
1.000000E+20
 30
1.000000E+20
  9
$PEXTMAX
 10
-1.000000E+20
 20
-1.000000E+20
 30
-1.000000E+20
  9
$PLIMMIN
 10
0.0
 20
0.0
  9
$PLIMMAX
 10
12.0
 20
9.0
  9
$UNITMODE
 70
     0
  9
$VISRETAIN
 70
     0
  9
$PLINEGEN
 70
     0
  9
$PSLTSCALE
 70
     0
  9
$TREEDEPTH
 70
  3020
  9
$DWGCODEPAGE
  3
iso8859-1
  0
ENDSEC
  0
SECTION
  2
TABLES
  0
TABLE
  2
VPORT
 70
     2
  0
VPORT
  2
*ACTIVE
 70
     0
 10
0.0
 20
0.0
 11
1.0
 21
1.0
 12
150.928365
 22
35.396118
 13
0.0
 23
0.0
 14
1.0
 24
1.0
 15
10.0
 25
10.0
 16
0.0
 26
0.0
 36
1.0
 17
0.0
 27
0.0
 37
0.0
 40
14.85
 41
1.611024
 42
50.0
 43
0.0
 44
0.0
 50
0.0
 51
0.0
 71
     0
 72
   100
 73
     1
 74
     0
 75
     0
 76
     0
 77
     0
 78
     1
  0
ENDTAB
  0
TABLE
  2
LTYPE
 70
     1
  0
LTYPE
  2
CONTINUOUS
 70
    64
  3
Solid line
 72
    65
 73
     0
 40
0.0
  0
ENDTAB
  0
TABLE
  2
LAYER
 70
     1
  0
LAYER
  2
0
 70
    64
 62
     7
  6
CONTINUOUS
  0
ENDTAB
  0
TABLE
  2
STYLE
 70
     2
  0
STYLE
  2
STANDARD
 70
     0
 40
0.0
 41
1.0
 50
0.0
 71
     0
 42
0.1
  3
txt
  4

  0
STYLE
  2
ROMANC
 70
    64
 40
0.0
 41
1.0
 50
0.0
 71
     0
 42
0.1
  3
romanc
  4

  0
ENDTAB
  0
TABLE
  2
VIEW
 70
     0
  0
ENDTAB
  0
TABLE
  2
UCS
 70
     0
  0
ENDTAB
  0
TABLE
  2
APPID
 70
     1
  0
APPID
  2
ACAD
 70
    64
  0
ENDTAB
  0
TABLE
  2
DIMSTYLE
 70
     0
  0
ENDTAB
  0
ENDSEC
  0
SECTION
  2
BLOCKS
  0
ENDSEC
  0
SECTION
  2
ENTITIES
  0
TEXT
  8
0
 10
141.496488
 20
39.931263
 30
0.0
 40
0.3
  1
ESCALA  1:50
  7
ROMANC
  0
TEXT
  8
0
 10
141.509582
 20
39.332673
 30
0.0
 40
0.3
  1
S =  71 dm
  7
ROMANC
  0
LINE
  8
0
 10
149.466515
 20
42.821118
 30
0.0
 11
138.966515
 21
42.821118
 31
0.0
  0
TEXT
  8
0
 10
141.496488
 20
40.416977
 30
0.0
 40
0.3
  1
TIPUS   NT71
  7
ROMANC
  0
TEXT
  8
0
 10
141.506754
 20
38.659175
 30
0.0
 40
0.3
  1
P = 34.7 dm
  7
ROMANC
  0
LINE
  8
0
 10
138.966515
 20
27.971118
 30
0.0
 11
149.466515
 21
27.971118
 31
0.0
  0
LINE
  8
0
 10
138.966515
 20
42.821118
 30
0.0
 11
138.966515
 21
27.971118
 31
0.0
  0
LINE
  8
0
 10
149.466515
 20
27.971118
 30
0.0
 11
149.466515
 21
42.821118
 31
0.0
  0
TEXT
  8
0
 10
143.937066
 20
32.124969
 30
0.0
 40
0.1
  1
0.62
  7
ROMANC
  0
LINE
  8
0
 10
144.746132
 20
33.927189
 30
0.0
 11
144.807492
 21
33.982969
 31
0.0
  0
LINE
  8
0
 10
144.746132
 20
33.497189
 30
0.0
 11
144.807492
 21
33.552969
 31
0.0
  0
LINE
  8
0
 10
144.746132
 20
32.747189
 30
0.0
 11
144.807492
 21
32.802969
 31
0.0
  0
LINE
  8
0
 10
143.672932
 20
32.29399
 30
0.0
 11
143.734293
 21
32.349769
 31
0.0
  0
LINE
  8
0
 10
144.292932
 20
32.29399
 30
0.0
 11
144.354293
 21
32.349769
 31
0.0
  0
TEXT
  8
0
 10
143.887925
 20
32.386953
 30
0.0
 40
0.1
  1
0.28
  7
ROMANC
  0
LINE
  8
0
 10
143.885005
 20
32.534321
 30
0.0
 11
144.165005
 21
32.534321
 31
0.0
  0
LINE
  8
0
 10
144.165005
 20
32.534321
 30
0.0
 11
144.165005
 21
32.781156
 31
0.0
  0
LINE
  8
0
 10
143.885005
 20
32.781156
 30
0.0
 11
143.885005
 21
32.534321
 31
0.0
  0
TEXT
  8
0
 10
144.892608
 20
33.70234
 30
0.0
 40
0.1
  1
0.43
  7
ROMANC
  0
TEXT
  8
0
 10
144.892608
 20
33.161995
 30
0.0
 40
0.1
  1
0.75
  7
ROMANC
  0
LINE
  8
0
 10
144.025005
 20
33.961156
 30
0.0
 11
145.47507
 21
33.961156
 31
0.0
  0
LINE
  8
0
 10
144.335005
 20
32.781156
 30
0.0
 11
144.335005
 21
32.327957
 31
0.0
  0
LINE
  8
0
 10
143.715005
 20
32.781156
 30
0.0
 11
143.715005
 21
32.327957
 31
0.0
  0
LINE
  8
0
 10
144.335005
 20
33.531156
 30
0.0
 11
144.788204
 21
33.531156
 31
0.0
  0
LINE
  8
0
 10
144.335005
 20
32.781156
 30
0.0
 11
144.788204
 21
32.781156
 31
0.0
  0
LINE
  8
0
 10
143.715005
 20
32.327957
 30
0.0
 11
144.335005
 21
32.327957
 31
0.0
  0
LINE
  8
0
 10
144.788204
 20
32.627343
 30
0.0
 11
144.788204
 21
33.961156
 31
0.0
  0
TEXT
  8
0
 10
144.737007
 20
39.638589
 30
0.0
 40
0.1
  1
2
  7
ROMANC
  0
LINE
  8
0
 10
144.335005
 20
34.37939
 30
0.0
 11
144.335005
 21
33.531156
 31
0.0
  0
LINE
  8
0
 10
143.715005
 20
34.37939
 30
0.0
 11
143.715005
 21
33.531156
 31
0.0
  0
LINE
  8
0
 10
143.715005
 20
34.37939
 30
0.0
 11
144.335005
 21
34.37939
 31
0.0
  0
LINE
  8
0
 10
143.672932
 20
34.345424
 30
0.0
 11
143.734293
 21
34.401203
 31
0.0
  0
LINE
  8
0
 10
144.292932
 20
34.345424
 30
0.0
 11
144.354293
 21
34.401203
 31
0.0
  0
TEXT
  8
0
 10
143.840827
 20
34.240975
 30
0.0
 40
0.1
  1
0.62
  7
ROMANC
  0
LINE
  8
0
 10
144.165005
 20
32.781156
 30
0.0
 11
144.335005
 21
32.781156
 31
0.0
  0
LINE
  8
0
 10
144.335005
 20
32.781156
 30
0.0
 11
144.335005
 21
33.531156
 31
0.0
  0
ARC
  8
0
 10
143.740573
 20
33.531156
 30
0.0
 40
0.594432
 50
0.0
 51
16.626629
  0
ARC
  8
0
 10
143.880351
 20
33.572896
 30
0.0
 40
0.448555
 50
16.626629
 51
35.788973
  0
ARC
  8
0
 10
143.968906
 20
33.636738
 30
0.0
 40
0.339386
 50
35.788973
 51
60.120294
  0
ARC
  8
0
 10
144.025005
 20
33.734378
 30
0.0
 40
0.226778
 50
60.120294
 51
90.0
  0
ARC
  8
0
 10
144.025005
 20
33.734378
 30
0.0
 40
0.226778
 50
90.0
 51
119.879706
  0
ARC
  8
0
 10
144.081104
 20
33.636738
 30
0.0
 40
0.339386
 50
119.879706
 51
144.211027
  0
ARC
  8
0
 10
144.169659
 20
33.572896
 30
0.0
 40
0.448555
 50
144.211027
 51
163.373371
  0
ARC
  8
0
 10
144.309437
 20
33.531156
 30
0.0
 40
0.594432
 50
163.373371
 51
180.0
  0
LINE
  8
0
 10
143.715005
 20
33.531156
 30
0.0
 11
143.715005
 21
32.781156
 31
0.0
  0
LINE
  8
0
 10
143.715005
 20
32.781156
 30
0.0
 11
143.885005
 21
32.781156
 31
0.0
  0
ARC
  8
0
 10
144.045508
 20
32.781156
 30
0.0
 40
0.160503
 50
180.0
 51
201.136468
  0
ARC
  8
0
 10
144.035511
 20
32.777291
 30
0.0
 40
0.149785
 50
201.136468
 51
223.025066
  0
ARC
  8
0
 10
144.029117
 20
32.771323
 30
0.0
 40
0.141039
 50
223.025066
 51
246.06834
  0
ARC
  8
0
 10
144.025005
 20
32.762057
 30
0.0
 40
0.130901
 50
246.06834
 51
270.0
  0
ARC
  8
0
 10
144.025005
 20
32.762057
 30
0.0
 40
0.130901
 50
270.0
 51
293.93166
  0
ARC
  8
0
 10
144.020893
 20
32.771323
 30
0.0
 40
0.141039
 50
293.93166
 51
316.974934
  0
ARC
  8
0
 10
144.014498
 20
32.777291
 30
0.0
 40
0.149785
 50
316.974934
 51
338.863532
  0
ARC
  8
0
 10
144.004502
 20
32.781156
 30
0.0
 40
0.160503
 50
338.863532
 51
0.0
  0
LINE
  8
0
 10
144.174711
 20
32.771156
 30
0.0
 11
144.345005
 21
32.771156
 31
0.0
  0
LINE
  8
0
 10
144.345005
 20
32.771156
 30
0.0
 11
144.345005
 21
33.531156
 31
0.0
  0
ARC
  8
0
 10
143.740573
 20
33.531156
 30
0.0
 40
0.604432
 50
0.0
 51
16.626629
  0
ARC
  8
0
 10
143.880351
 20
33.572896
 30
0.0
 40
0.458555
 50
16.626629
 51
35.788973
  0
ARC
  8
0
 10
143.968906
 20
33.636738
 30
0.0
 40
0.349386
 50
35.788973
 51
60.120294
  0
ARC
  8
0
 10
144.025005
 20
33.734378
 30
0.0
 40
0.236778
 50
60.120294
 51
90.0
  0
ARC
  8
0
 10
144.025005
 20
33.734378
 30
0.0
 40
0.236778
 50
90.0
 51
119.879706
  0
ARC
  8
0
 10
144.081104
 20
33.636738
 30
0.0
 40
0.349386
 50
119.879706
 51
144.211027
  0
ARC
  8
0
 10
144.169659
 20
33.572896
 30
0.0
 40
0.458555
 50
144.211027
 51
163.373371
  0
ARC
  8
0
 10
144.309437
 20
33.531156
 30
0.0
 40
0.604432
 50
163.373371
 51
180.0
  0
LINE
  8
0
 10
143.705005
 20
33.531156
 30
0.0
 11
143.705005
 21
32.771156
 31
0.0
  0
LINE
  8
0
 10
143.705005
 20
32.771156
 30
0.0
 11
143.875298
 21
32.771156
 31
0.0
  0
ARC
  8
0
 10
144.045508
 20
32.781156
 30
0.0
 40
0.170503
 50
183.362326
 51
201.136468
  0
ARC
  8
0
 10
144.035511
 20
32.777291
 30
0.0
 40
0.159785
 50
201.136468
 51
223.025066
  0
ARC
  8
0
 10
144.029117
 20
32.771323
 30
0.0
 40
0.151039
 50
223.025066
 51
246.06834
  0
ARC
  8
0
 10
144.025005
 20
32.762057
 30
0.0
 40
0.140901
 50
246.06834
 51
270.0
  0
ARC
  8
0
 10
144.025005
 20
32.762057
 30
0.0
 40
0.140901
 50
270.0
 51
293.93166
  0
ARC
  8
0
 10
144.020893
 20
32.771323
 30
0.0
 40
0.151039
 50
293.93166
 51
316.974934
  0
ARC
  8
0
 10
144.014498
 20
32.777291
 30
0.0
 40
0.159785
 50
316.974934
 51
338.863532
  0
ARC
  8
0
 10
144.004502
 20
32.781156
 30
0.0
 40
0.170503
 50
338.863532
 51
356.637674
  0
LINE
  8
0
 10
144.154672
 20
32.791156
 30
0.0
 11
144.325005
 21
32.791156
 31
0.0
  0
LINE
  8
0
 10
144.325005
 20
32.791156
 30
0.0
 11
144.325005
 21
33.531156
 31
0.0
  0
ARC
  8
0
 10
143.740573
 20
33.531156
 30
0.0
 40
0.584432
 50
0.0
 51
16.626629
  0
ARC
  8
0
 10
143.880351
 20
33.572896
 30
0.0
 40
0.438555
 50
16.626629
 51
35.788973
  0
ARC
  8
0
 10
143.968906
 20
33.636738
 30
0.0
 40
0.329386
 50
35.788973
 51
60.120294
  0
ARC
  8
0
 10
144.025005
 20
33.734378
 30
0.0
 40
0.216778
 50
60.120294
 51
90.0
  0
ARC
  8
0
 10
144.025005
 20
33.734378
 30
0.0
 40
0.216778
 50
90.0
 51
119.879706
  0
ARC
  8
0
 10
144.081104
 20
33.636738
 30
0.0
 40
0.329386
 50
119.879706
 51
144.211027
  0
ARC
  8
0
 10
144.169659
 20
33.572896
 30
0.0
 40
0.438555
 50
144.211027
 51
163.373371
  0
ARC
  8
0
 10
144.309437
 20
33.531156
 30
0.0
 40
0.584432
 50
163.373371
 51
180.0
  0
LINE
  8
0
 10
143.725005
 20
33.531156
 30
0.0
 11
143.725005
 21
32.791156
 31
0.0
  0
LINE
  8
0
 10
143.725005
 20
32.791156
 30
0.0
 11
143.895338
 21
32.791156
 31
0.0
  0
ARC
  8
0
 10
144.045508
 20
32.781156
 30
0.0
 40
0.150503
 50
176.190241
 51
201.136468
  0
ARC
  8
0
 10
144.035511
 20
32.777291
 30
0.0
 40
0.139785
 50
201.136468
 51
223.025066
  0
ARC
  8
0
 10
144.029117
 20
32.771323
 30
0.0
 40
0.131039
 50
223.025066
 51
246.06834
  0
ARC
  8
0
 10
144.025005
 20
32.762057
 30
0.0
 40
0.120901
 50
246.06834
 51
270.0
  0
ARC
  8
0
 10
144.025005
 20
32.762057
 30
0.0
 40
0.120901
 50
270.0
 51
293.93166
  0
ARC
  8
0
 10
144.020893
 20
32.771323
 30
0.0
 40
0.131039
 50
293.93166
 51
316.974934
  0
ARC
  8
0
 10
144.014498
 20
32.777291
 30
0.0
 40
0.139785
 50
316.974934
 51
338.863532
  0
ARC
  8
0
 10
144.004502
 20
32.781156
 30
0.0
 40
0.150503
 50
338.863532
 51
3.809759
  0
LINE
  8
0
 10
144.022371
 20
32.627343
 30
0.0
 11
145.47507
 21
32.627343
 31
0.0
  0
LINE
  8
0
 10
144.746132
 20
32.593376
 30
0.0
 11
144.807492
 21
32.649155
 31
0.0
  0
TEXT
  8
0
 10
144.892608
 20
32.657128
 30
0.0
 40
0.1
  1
0.15
  7
ROMANC
  0
LINE
  8
0
 10
145.47507
 20
33.961156
 30
0.0
 11
145.47507
 21
32.627343
 31
0.0
  0
LINE
  8
0
 10
145.437705
 20
32.593376
 30
0.0
 11
145.499066
 21
32.649155
 31
0.0
  0
LINE
  8
0
 10
145.437705
 20
33.927189
 30
0.0
 11
145.499066
 21
33.982969
 31
0.0
  0
TEXT
  8
0
 10
145.504271
 20
33.161995
 30
0.0
 40
0.1
  1
1.33
  7
ROMANC
  0
ENDSEC
  0
EOF
