  0
SECTION
  2
HEADER
  9
$ACADVER
  1
AC1009
  9
$INSBASE
 10
200.486317
 20
27.966338
 30
0.0
  9
$EXTMIN
 10
140.175068
 20
-27.532393
 30
0.0
  9
$EXTMAX
 10
351.54669
 20
43.022959
 30
0.0
  9
$LIMMIN
 10
0.0
 20
0.0
  9
$LIMMAX
 10
410.0
 20
287.0
  9
$ORTHOMODE
 70
     0
  9
$REGENMODE
 70
     1
  9
$FILLMODE
 70
     1
  9
$QTEXTMODE
 70
     0
  9
$MIRRTEXT
 70
     1
  9
$DRAGMODE
 70
     2
  9
$LTSCALE
 40
25.0
  9
$OSMODE
 70
    32
  9
$ATTMODE
 70
     1
  9
$TEXTSIZE
 40
0.1
  9
$TRACEWID
 40
1.0
  9
$TEXTSTYLE
  7
ROMANC
  9
$CLAYER
  8
0
  9
$CELTYPE
  6
BYLAYER
  9
$CECOLOR
 62
   256
  9
$DIMSCALE
 40
0.0
  9
$DIMASZ
 40
0.0
  9
$DIMEXO
 40
0.1
  9
$DIMDLI
 40
7.0
  9
$DIMRND
 40
0.0
  9
$DIMDLE
 40
0.0
  9
$DIMEXE
 40
1.8
  9
$DIMTP
 40
0.0
  9
$DIMTM
 40
0.0
  9
$DIMTXT
 40
0.03
  9
$DIMCEN
 40
1.5
  9
$DIMTSZ
 40
1.0
  9
$DIMTOL
 70
     0
  9
$DIMLIM
 70
     0
  9
$DIMTIH
 70
     0
  9
$DIMTOH
 70
     0
  9
$DIMSE1
 70
     0
  9
$DIMSE2
 70
     0
  9
$DIMTAD
 70
     0
  9
$DIMZIN
 70
     0
  9
$DIMBLK
  1

  9
$DIMASO
 70
     1
  9
$DIMSHO
 70
     0
  9
$DIMPOST
  1

  9
$DIMAPOST
  1

  9
$DIMALT
 70
     0
  9
$DIMALTD
 70
     2
  9
$DIMALTF
 40
25.4
  9
$DIMLFAC
 40
1.0
  9
$DIMTOFL
 70
     1
  9
$DIMTVP
 40
0.0
  9
$DIMTIX
 70
     1
  9
$DIMSOXD
 70
     0
  9
$DIMSAH
 70
     0
  9
$DIMBLK1
  1

  9
$DIMBLK2
  1

  9
$DIMSTYLE
  2
*UNNAMED
  9
$DIMCLRD
 70
     0
  9
$DIMCLRE
 70
     0
  9
$DIMCLRT
 70
     0
  9
$DIMTFAC
 40
116.666667
  9
$DIMGAP
 40
0.09
  9
$LUNITS
 70
     2
  9
$LUPREC
 70
     2
  9
$SKETCHINC
 40
1.0
  9
$FILLETRAD
 40
0.0
  9
$AUNITS
 70
     0
  9
$AUPREC
 70
     0
  9
$MENU
  1
acad
  9
$ELEVATION
 40
0.0
  9
$PELEVATION
 40
0.0
  9
$THICKNESS
 40
0.0
  9
$LIMCHECK
 70
     0
  9
$BLIPMODE
 70
     0
  9
$CHAMFERA
 40
0.0
  9
$CHAMFERB
 40
0.0
  9
$SKPOLY
 70
     0
  9
$TDCREATE
 40
2449967.708979976
  9
$TDUPDATE
 40
2449967.708979976
  9
$TDINDWG
 40
0.0000000000
  9
$TDUSRTIMER
 40
0.0000000000
  9
$USRTIMER
 70
     1
  9
$ANGBASE
 50
0.0
  9
$ANGDIR
 70
     0
  9
$PDMODE
 70
     0
  9
$PDSIZE
 40
0.0
  9
$PLINEWID
 40
0.0
  9
$COORDS
 70
     0
  9
$SPLFRAME
 70
     0
  9
$SPLINETYPE
 70
     6
  9
$SPLINESEGS
 70
     8
  9
$ATTDIA
 70
     0
  9
$ATTREQ
 70
     1
  9
$HANDLING
 70
     0
  9
$HANDSEED
  5
0
  9
$SURFTAB1
 70
     6
  9
$SURFTAB2
 70
     6
  9
$SURFTYPE
 70
     6
  9
$SURFU
 70
     6
  9
$SURFV
 70
     6
  9
$UCSNAME
  2

  9
$UCSORG
 10
0.0
 20
0.0
 30
0.0
  9
$UCSXDIR
 10
1.0
 20
0.0
 30
0.0
  9
$UCSYDIR
 10
0.0
 20
1.0
 30
0.0
  9
$PUCSNAME
  2

  9
$PUCSORG
 10
0.0
 20
0.0
 30
0.0
  9
$PUCSXDIR
 10
1.0
 20
0.0
 30
0.0
  9
$PUCSYDIR
 10
0.0
 20
1.0
 30
0.0
  9
$USERI1
 70
     0
  9
$USERI2
 70
     0
  9
$USERI3
 70
     0
  9
$USERI4
 70
     0
  9
$USERI5
 70
     0
  9
$USERR1
 40
0.0
  9
$USERR2
 40
0.0
  9
$USERR3
 40
0.0
  9
$USERR4
 40
0.0
  9
$USERR5
 40
0.0
  9
$WORLDVIEW
 70
     1
  9
$SHADEDGE
 70
     3
  9
$SHADEDIF
 70
    70
  9
$TILEMODE
 70
     1
  9
$MAXACTVP
 70
    16
  9
$PINSBASE
 10
0.0
 20
0.0
 30
0.0
  9
$PLIMCHECK
 70
     0
  9
$PEXTMIN
 10
1.000000E+20
 20
1.000000E+20
 30
1.000000E+20
  9
$PEXTMAX
 10
-1.000000E+20
 20
-1.000000E+20
 30
-1.000000E+20
  9
$PLIMMIN
 10
0.0
 20
0.0
  9
$PLIMMAX
 10
12.0
 20
9.0
  9
$UNITMODE
 70
     0
  9
$VISRETAIN
 70
     0
  9
$PLINEGEN
 70
     0
  9
$PSLTSCALE
 70
     0
  9
$TREEDEPTH
 70
  3020
  9
$DWGCODEPAGE
  3
iso8859-1
  0
ENDSEC
  0
SECTION
  2
TABLES
  0
TABLE
  2
VPORT
 70
     1
  0
VPORT
  2
*ACTIVE
 70
     0
 10
0.0
 20
0.0
 11
1.0
 21
1.0
 12
202.896284
 22
35.625236
 13
0.0
 23
0.0
 14
1.0
 24
1.0
 15
10.0
 25
10.0
 16
0.0
 26
0.0
 36
1.0
 17
0.0
 27
0.0
 37
0.0
 40
18.090187
 41
1.65
 42
50.0
 43
0.0
 44
0.0
 50
0.0
 51
0.0
 71
     0
 72
   100
 73
     1
 74
     0
 75
     0
 76
     0
 77
     0
 78
     1
  0
ENDTAB
  0
TABLE
  2
LTYPE
 70
     1
  0
LTYPE
  2
CONTINUOUS
 70
    64
  3
Solid line
 72
    65
 73
     0
 40
0.0
  0
ENDTAB
  0
TABLE
  2
LAYER
 70
     1
  0
LAYER
  2
0
 70
    64
 62
     7
  6
CONTINUOUS
  0
ENDTAB
  0
TABLE
  2
STYLE
 70
     2
  0
STYLE
  2
STANDARD
 70
     0
 40
0.0
 41
1.0
 50
0.0
 71
     0
 42
0.1
  3
txt
  4

  0
STYLE
  2
ROMANC
 70
    64
 40
0.0
 41
1.0
 50
0.0
 71
     0
 42
0.1
  3
romanc
  4

  0
ENDTAB
  0
TABLE
  2
VIEW
 70
     0
  0
ENDTAB
  0
TABLE
  2
UCS
 70
     0
  0
ENDTAB
  0
TABLE
  2
APPID
 70
     1
  0
APPID
  2
ACAD
 70
    64
  0
ENDTAB
  0
TABLE
  2
DIMSTYLE
 70
     0
  0
ENDTAB
  0
ENDSEC
  0
SECTION
  2
BLOCKS
  0
ENDSEC
  0
SECTION
  2
ENTITIES
  0
LINE
  8
0
 10
200.486317
 20
42.816338
 30
0.0
 11
200.486317
 21
27.966338
 31
0.0
  0
LINE
  8
0
 10
210.986317
 20
27.966338
 30
0.0
 11
210.986317
 21
42.816338
 31
0.0
  0
LINE
  8
0
 10
200.486317
 20
27.966338
 30
0.0
 11
210.986317
 21
27.966338
 31
0.0
  0
POLYLINE
  8
0
 66
     1
 10
0.0
 20
0.0
 30
0.0
 70
     1
  0
VERTEX
  8
0
 10
203.988375
 20
34.23863
 30
0.0
  0
VERTEX
  8
0
 10
203.988375
 20
33.39863
 30
0.0
  0
VERTEX
  8
0
 10
205.463604
 20
33.39863
 30
0.0
 42
0.118917
  0
VERTEX
  8
0
 10
205.482985
 20
33.298296
 30
0.0
 42
0.101711
  0
VERTEX
  8
0
 10
205.540647
 20
33.219253
 30
0.0
 42
0.094701
 70
     2
 50
317.726311
  0
VERTEX
  8
0
 10
205.625479
 20
33.167361
 30
0.0
 42
0.090278
 50
317.726311
  0
VERTEX
  8
0
 10
205.728375
 20
33.14863
 30
0.0
 42
0.090278
  0
VERTEX
  8
0
 10
205.83127
 20
33.167361
 30
0.0
 42
0.094701
  0
VERTEX
  8
0
 10
205.916102
 20
33.219253
 30
0.0
 42
0.101711
 70
     2
 50
42.273689
  0
VERTEX
  8
0
 10
205.973765
 20
33.298296
 30
0.0
 42
0.118917
 50
42.273689
  0
VERTEX
  8
0
 10
205.993145
 20
33.39863
 30
0.0
  0
VERTEX
  8
0
 10
207.468375
 20
33.39863
 30
0.0
  0
VERTEX
  8
0
 10
207.468375
 20
34.23863
 30
0.0
 42
0.127854
  0
VERTEX
  8
0
 10
207.345843
 20
34.709983
 30
0.0
 42
0.106203
  0
VERTEX
  8
0
 10
206.959848
 20
35.149841
 30
0.0
 42
0.085308
 70
     2
 50
143.392925
  0
VERTEX
  8
0
 10
206.41596
 20
35.425236
 30
0.0
 42
0.074766
 50
143.392925
  0
VERTEX
  8
0
 10
205.728375
 20
35.52863
 30
0.0
 42
0.074766
  0
VERTEX
  8
0
 10
205.040789
 20
35.425236
 30
0.0
 42
0.085308
  0
VERTEX
  8
0
 10
204.496901
 20
35.149841
 30
0.0
 42
0.106203
 70
     2
 50
216.607075
  0
VERTEX
  8
0
 10
204.110906
 20
34.709983
 30
0.0
 42
0.127854
 50
216.607075
  0
SEQEND
  8
0
  0
POLYLINE
  8
0
 66
     1
 10
0.0
 20
0.0
 30
0.0
 70
     1
  0
VERTEX
  8
0
 10
203.968375
 20
34.23863
 30
0.0
  0
VERTEX
  8
0
 10
203.968375
 20
33.37863
 30
0.0
  0
VERTEX
  8
0
 10
205.443585
 20
33.37863
 30
0.0
 42
0.096669
  0
VERTEX
  8
0
 10
205.464785
 20
33.290003
 30
0.0
 42
0.101711
  0
VERTEX
  8
0
 10
205.527194
 20
33.204454
 30
0.0
 42
0.094701
 70
     2
 50
317.726311
  0
VERTEX
  8
0
 10
205.618431
 20
33.148644
 30
0.0
 42
0.090278
 50
317.726311
  0
VERTEX
  8
0
 10
205.728375
 20
33.12863
 30
0.0
 42
0.090278
  0
VERTEX
  8
0
 10
205.838318
 20
33.148644
 30
0.0
 42
0.094701
  0
VERTEX
  8
0
 10
205.929556
 20
33.204454
 30
0.0
 42
0.101711
 70
     2
 50
42.273689
  0
VERTEX
  8
0
 10
205.991965
 20
33.290003
 30
0.0
 42
0.096669
 50
42.273689
  0
VERTEX
  8
0
 10
206.013164
 20
33.37863
 30
0.0
  0
VERTEX
  8
0
 10
207.488375
 20
33.37863
 30
0.0
  0
VERTEX
  8
0
 10
207.488375
 20
34.23863
 30
0.0
 42
0.127854
  0
VERTEX
  8
0
 10
207.363311
 20
34.719724
 30
0.0
 42
0.106203
  0
VERTEX
  8
0
 10
206.971775
 20
35.165896
 30
0.0
 42
0.085308
 70
     2
 50
143.392925
  0
VERTEX
  8
0
 10
206.421842
 20
35.444352
 30
0.0
 42
0.074766
 50
143.392925
  0
VERTEX
  8
0
 10
205.728375
 20
35.54863
 30
0.0
 42
0.074766
  0
VERTEX
  8
0
 10
205.034907
 20
35.444352
 30
0.0
 42
0.085308
  0
VERTEX
  8
0
 10
204.484975
 20
35.165896
 30
0.0
 42
0.106203
 70
     2
 50
216.607075
  0
VERTEX
  8
0
 10
204.093438
 20
34.719724
 30
0.0
 42
0.127854
 50
216.607075
  0
SEQEND
  8
0
  0
POLYLINE
  8
0
 66
     1
 10
0.0
 20
0.0
 30
0.0
 70
     1
  0
VERTEX
  8
0
 10
203.978375
 20
34.23863
 30
0.0
  0
VERTEX
  8
0
 10
203.978375
 20
33.38863
 30
0.0
  0
VERTEX
  8
0
 10
205.453375
 20
33.38863
 30
0.0
 42
0.107291
  0
VERTEX
  8
0
 10
205.473885
 20
33.29415
 30
0.0
 42
0.101711
  0
VERTEX
  8
0
 10
205.53392
 20
33.211853
 30
0.0
 42
0.094701
 70
     2
 50
317.726311
  0
VERTEX
  8
0
 10
205.621955
 20
33.158003
 30
0.0
 42
0.090278
 50
317.726311
  0
VERTEX
  8
0
 10
205.728375
 20
33.13863
 30
0.0
 42
0.090278
  0
VERTEX
  8
0
 10
205.834794
 20
33.158003
 30
0.0
 42
0.094701
  0
VERTEX
  8
0
 10
205.922829
 20
33.211853
 30
0.0
 42
0.101711
 70
     2
 50
42.273689
  0
VERTEX
  8
0
 10
205.982865
 20
33.29415
 30
0.0
 42
0.107291
 50
42.273689
  0
VERTEX
  8
0
 10
206.003375
 20
33.38863
 30
0.0
  0
VERTEX
  8
0
 10
207.478375
 20
33.38863
 30
0.0
  0
VERTEX
  8
0
 10
207.478375
 20
34.23863
 30
0.0
 42
0.127854
  0
VERTEX
  8
0
 10
207.354577
 20
34.714853
 30
0.0
 42
0.106203
  0
VERTEX
  8
0
 10
206.965811
 20
35.157869
 30
0.0
 42
0.085308
 70
     2
 50
143.392925
  0
VERTEX
  8
0
 10
206.418901
 20
35.434794
 30
0.0
 42
0.074766
 50
143.392925
  0
VERTEX
  8
0
 10
205.728375
 20
35.53863
 30
0.0
 42
0.074766
  0
VERTEX
  8
0
 10
205.037848
 20
35.434794
 30
0.0
 42
0.085308
  0
VERTEX
  8
0
 10
204.490938
 20
35.157869
 30
0.0
 42
0.106203
 70
     2
 50
216.607075
  0
VERTEX
  8
0
 10
204.102172
 20
34.714853
 30
0.0
 42
0.127854
 50
216.607075
  0
VERTEX
  8
0
 10
203.978375
 20
34.23863
 30
0.0
  0
SEQEND
  8
0
  0
POLYLINE
  8
0
 66
     1
 10
0.0
 20
0.0
 30
0.0
  0
VERTEX
  8
0
 10
203.978375
 20
33.38863
 30
0.0
  0
VERTEX
  8
0
 10
203.978375
 20
32.732003
 30
0.0
  0
VERTEX
  8
0
 10
207.478358
 20
32.732003
 30
0.0
  0
VERTEX
  8
0
 10
207.478375
 20
33.38863
 30
0.0
  0
SEQEND
  8
0
  0
LINE
  8
0
 10
203.915293
 20
32.662771
 30
0.0
 11
204.041456
 21
32.801235
 31
0.0
  0
LINE
  8
0
 10
207.995095
 20
35.461042
 30
0.0
 11
208.121258
 21
35.599506
 31
0.0
  0
LINE
  8
0
 10
207.995095
 20
34.173441
 30
0.0
 11
208.121258
 21
34.311905
 31
0.0
  0
LINE
  8
0
 10
208.013874
 20
33.319241
 30
0.0
 11
208.140037
 21
33.457705
 31
0.0
  0
LINE
  8
0
 10
207.995095
 20
33.038606
 30
0.0
 11
208.121258
 21
33.17707
 31
0.0
  0
LINE
  8
0
 10
205.374541
 20
32.907663
 30
0.0
 11
205.500704
 21
33.046127
 31
0.0
  0
LINE
  8
0
 10
205.964166
 20
32.929487
 30
0.0
 11
206.090329
 21
33.067951
 31
0.0
  0
LINE
  8
0
 10
207.415276
 20
32.662771
 30
0.0
 11
207.541439
 21
32.801235
 31
0.0
  0
TEXT
  8
0
 10
208.259058
 20
34.875798
 30
0.0
 40
0.1
  1
1.30
  7
ROMANC
  0
TEXT
  8
0
 10
208.247988
 20
33.738872
 30
0.0
 40
0.1
  1
0.85
  7
ROMANC
  0
TEXT
  8
0
 10
208.269826
 20
33.215101
 30
0.0
 40
0.1
  1
0.25
  7
ROMANC
  0
TEXT
  8
0
 10
205.52207
 20
32.423799
 30
0.0
 40
0.1
  1
3.50
  7
ROMANC
  0
TEXT
  8
0
 10
205.544443
 20
32.818802
 30
0.0
 40
0.1
  1
0.55
  7
ROMANC
  0
POLYLINE
  8
0
 66
     1
 10
0.0
 20
0.0
 30
0.0
  0
VERTEX
  8
0
 10
205.453375
 20
33.38863
 30
0.0
  0
VERTEX
  8
0
 10
205.453375
 20
33.00981
 30
0.0
  0
VERTEX
  8
0
 10
206.003101
 20
33.00981
 30
0.0
  0
VERTEX
  8
0
 10
206.003375
 20
33.38863
 30
0.0
  0
SEQEND
  8
0
  0
POLYLINE
  8
0
 66
     1
 10
0.0
 20
0.0
 30
0.0
  0
VERTEX
  8
0
 10
208.076956
 20
33.388473
 30
0.0
  0
VERTEX
  8
0
 10
208.076956
 20
33.130906
 30
0.0
  0
VERTEX
  8
0
 10
205.724745
 20
33.130906
 30
0.0
  0
SEQEND
  8
0
  0
POLYLINE
  8
0
 66
     1
 10
0.0
 20
0.0
 30
0.0
  0
VERTEX
  8
0
 10
208.076956
 20
34.222129
 30
0.0
  0
VERTEX
  8
0
 10
208.076956
 20
33.388473
 30
0.0
  0
VERTEX
  8
0
 10
207.478375
 20
33.38863
 30
0.0
  0
SEQEND
  8
0
  0
POLYLINE
  8
0
 66
     1
 10
0.0
 20
0.0
 30
0.0
  0
VERTEX
  8
0
 10
205.739002
 20
35.545697
 30
0.0
  0
VERTEX
  8
0
 10
208.076956
 20
35.545697
 30
0.0
  0
VERTEX
  8
0
 10
208.076956
 20
34.263507
 30
0.0
  0
VERTEX
  8
0
 10
207.490896
 20
34.263507
 30
0.0
  0
SEQEND
  8
0
  0
TEXT
  8
0
 10
203.01629
 20
39.926483
 30
0.0
 40
0.3
  1
ESCALA  1:50
  7
ROMANC
  0
TEXT
  8
0
 10
202.978368
 20
38.630314
 30
0.0
 40
0.3
  1
P = 103 dm
  7
ROMANC
  0
TEXT
  8
0
 10
203.029384
 20
39.327893
 30
0.0
 40
0.3
  1
S = 666 dm
  7
ROMANC
  0
TEXT
  8
0
 10
203.01629
 20
40.412197
 30
0.0
 40
0.3
  1
TIPUS   NT666
  7
ROMANC
  0
TEXT
  8
0
 10
206.212793
 20
39.633809
 30
0.0
 40
0.1
  1
2
  7
ROMANC
  0
LINE
  8
0
 10
210.986317
 20
42.816338
 30
0.0
 11
200.486317
 21
42.816338
 31
0.0
  0
ENDSEC
  0
EOF
