  0
SECTION
  2
HEADER
  9
$ACADVER
  1
AC1009
  9
$INSBASE
 10
0.0
 20
0.0
 30
0.0
  9
$EXTMIN
 10
318.829805
 20
29.85788
 30
0.0
  9
$EXTMAX
 10
329.371339
 20
44.72551
 30
0.0
  9
$LIMMIN
 10
0.0
 20
0.0
  9
$LIMMAX
 10
410.0
 20
287.0
  9
$ORTHOMODE
 70
     1
  9
$REGENMODE
 70
     1
  9
$FILLMODE
 70
     1
  9
$QTEXTMODE
 70
     0
  9
$MIRRTEXT
 70
     1
  9
$DRAGMODE
 70
     2
  9
$LTSCALE
 40
25.0
  9
$OSMODE
 70
     0
  9
$ATTMODE
 70
     1
  9
$TEXTSIZE
 40
0.1
  9
$TRACEWID
 40
1.0
  9
$TEXTSTYLE
  7
ROMANC
  9
$CLAYER
  8
0
  9
$CELTYPE
  6
BYLAYER
  9
$CECOLOR
 62
   256
  9
$DIMSCALE
 40
1.5
  9
$DIMASZ
 40
0.1
  9
$DIMEXO
 40
0.01
  9
$DIMDLI
 40
7.0
  9
$DIMRND
 40
0.0
  9
$DIMDLE
 40
0.0
  9
$DIMEXE
 40
0.01
  9
$DIMTP
 40
0.0
  9
$DIMTM
 40
0.0
  9
$DIMTXT
 40
0.05
  9
$DIMCEN
 40
0.0
  9
$DIMTSZ
 40
0.0
  9
$DIMTOL
 70
     0
  9
$DIMLIM
 70
     0
  9
$DIMTIH
 70
     0
  9
$DIMTOH
 70
     0
  9
$DIMSE1
 70
     0
  9
$DIMSE2
 70
     0
  9
$DIMTAD
 70
     1
  9
$DIMZIN
 70
     0
  9
$DIMBLK
  1

  9
$DIMASO
 70
     1
  9
$DIMSHO
 70
     0
  9
$DIMPOST
  1

  9
$DIMAPOST
  1

  9
$DIMALT
 70
     0
  9
$DIMALTD
 70
     2
  9
$DIMALTF
 40
25.4
  9
$DIMLFAC
 40
1.0
  9
$DIMTOFL
 70
     1
  9
$DIMTVP
 40
0.0
  9
$DIMTIX
 70
     1
  9
$DIMSOXD
 70
     0
  9
$DIMSAH
 70
     0
  9
$DIMBLK1
  1

  9
$DIMBLK2
  1

  9
$DIMSTYLE
  2
MERITXELL
  9
$DIMCLRD
 70
     0
  9
$DIMCLRE
 70
     0
  9
$DIMCLRT
 70
     0
  9
$DIMTFAC
 40
70.0
  9
$DIMGAP
 40
0.025
  9
$LUNITS
 70
     2
  9
$LUPREC
 70
     2
  9
$SKETCHINC
 40
1.0
  9
$FILLETRAD
 40
0.0
  9
$AUNITS
 70
     0
  9
$AUPREC
 70
     0
  9
$MENU
  1
acad
  9
$ELEVATION
 40
0.0
  9
$PELEVATION
 40
0.0
  9
$THICKNESS
 40
0.0
  9
$LIMCHECK
 70
     0
  9
$BLIPMODE
 70
     0
  9
$CHAMFERA
 40
0.0
  9
$CHAMFERB
 40
0.0
  9
$SKPOLY
 70
     0
  9
$TDCREATE
 40
2450927.46195
  9
$TDUPDATE
 40
2451037.486595
  9
$TDINDWG
 40
0.046687
  9
$TDUSRTIMER
 40
0.046687
  9
$USRTIMER
 70
     1
  9
$ANGBASE
 50
0.0
  9
$ANGDIR
 70
     0
  9
$PDMODE
 70
     0
  9
$PDSIZE
 40
0.0
  9
$PLINEWID
 40
0.0
  9
$COORDS
 70
     2
  9
$SPLFRAME
 70
     0
  9
$SPLINETYPE
 70
     6
  9
$SPLINESEGS
 70
     8
  9
$ATTDIA
 70
     0
  9
$ATTREQ
 70
     1
  9
$HANDLING
 70
     1
  9
$HANDSEED
  5
19E
  9
$SURFTAB1
 70
     6
  9
$SURFTAB2
 70
     6
  9
$SURFTYPE
 70
     6
  9
$SURFU
 70
     6
  9
$SURFV
 70
     6
  9
$UCSNAME
  2

  9
$UCSORG
 10
0.0
 20
0.0
 30
0.0
  9
$UCSXDIR
 10
1.0
 20
0.0
 30
0.0
  9
$UCSYDIR
 10
0.0
 20
1.0
 30
0.0
  9
$PUCSNAME
  2

  9
$PUCSORG
 10
0.0
 20
0.0
 30
0.0
  9
$PUCSXDIR
 10
1.0
 20
0.0
 30
0.0
  9
$PUCSYDIR
 10
0.0
 20
1.0
 30
0.0
  9
$USERI1
 70
     0
  9
$USERI2
 70
     0
  9
$USERI3
 70
     0
  9
$USERI4
 70
     0
  9
$USERI5
 70
     0
  9
$USERR1
 40
0.0
  9
$USERR2
 40
0.0
  9
$USERR3
 40
0.0
  9
$USERR4
 40
0.0
  9
$USERR5
 40
0.0
  9
$WORLDVIEW
 70
     1
  9
$SHADEDGE
 70
     3
  9
$SHADEDIF
 70
    70
  9
$TILEMODE
 70
     1
  9
$MAXACTVP
 70
    16
  9
$PLIMCHECK
 70
     0
  9
$PEXTMIN
 10
1.000000E+020
 20
1.000000E+020
 30
1.000000E+020
  9
$PEXTMAX
 10
-1.000000E+020
 20
-1.000000E+020
 30
-1.000000E+020
  9
$PLIMMIN
 10
0.0
 20
0.0
  9
$PLIMMAX
 10
12.0
 20
9.0
  9
$UNITMODE
 70
     0
  9
$VISRETAIN
 70
     0
  9
$PLINEGEN
 70
     0
  9
$PSLTSCALE
 70
     0
  0
ENDSEC
  0
SECTION
  2
TABLES
  0
TABLE
  2
VPORT
 70
     5
  0
VPORT
  2
*ACTIVE
 70
     0
 10
0.0
 20
0.0
 11
1.0
 21
1.0
 12
324.100572
 22
37.291695
 13
0.0
 23
0.0
 14
1.0
 24
1.0
 15
10.0
 25
10.0
 16
0.0
 26
0.0
 36
1.0
 17
0.0
 27
0.0
 37
0.0
 40
14.996726
 41
1.662319
 42
50.0
 43
0.0
 44
0.0
 50
0.0
 51
0.0
 71
     0
 72
   100
 73
     1
 74
     0
 75
     0
 76
     0
 77
     0
 78
     1
  0
ENDTAB
  0
TABLE
  2
LTYPE
 70
     1
  0
LTYPE
  2
CONTINUOUS
 70
     0
  3
Solid line
 72
    65
 73
     0
 40
0.0
  0
ENDTAB
  0
TABLE
  2
LAYER
 70
     2
  0
LAYER
  2
0
 70
     0
 62
     7
  6
CONTINUOUS
  0
LAYER
  2
DEFPOINTS
 70
     0
 62
     7
  6
CONTINUOUS
  0
ENDTAB
  0
TABLE
  2
STYLE
 70
     2
  0
STYLE
  2
STANDARD
 70
     0
 40
0.0
 41
1.0
 50
0.0
 71
     0
 42
0.1
  3
txt
  4

  0
STYLE
  2
ROMANC
 70
     0
 40
0.0
 41
1.0
 50
0.0
 71
     0
 42
0.1
  3
romanc
  4

  0
ENDTAB
  0
TABLE
  2
VIEW
 70
     0
  0
ENDTAB
  0
TABLE
  2
UCS
 70
     0
  0
ENDTAB
  0
TABLE
  2
APPID
 70
     1
  0
APPID
  2
ACAD
 70
     0
  0
ENDTAB
  0
TABLE
  2
DIMSTYLE
 70
     1
  0
DIMSTYLE
  2
MERITXELL
 70
     0
  3

  4

  5

  6

  7

 40
1.5
 41
0.1
 42
0.01
 43
7.0
 44
0.01
 45
0.0
 46
0.0
 47
0.0
 48
0.0
140
0.05
141
0.1
142
0.0
143
25.4
144
1.0
145
0.0
146
70.0
147
0.09
 71
     0
 72
     0
 73
     0
 74
     0
 75
     0
 76
     0
 77
     1
 78
     0
170
     0
171
     2
172
     1
173
     0
174
     1
175
     0
176
     0
177
     0
178
     0
  0
ENDTAB
  0
ENDSEC
  0
SECTION
  2
BLOCKS
  0
BLOCK
  8
0
  2
$MODEL_SPACE
 70
     0
 10
0.0
 20
0.0
 30
0.0
  3
$MODEL_SPACE
  1

  0
ENDBLK
  5
24
  8
0
  0
BLOCK
 67
     1
  8
0
  2
$PAPER_SPACE
 70
     0
 10
0.0
 20
0.0
 30
0.0
  3
$PAPER_SPACE
  1

  0
ENDBLK
  5
22
 67
     1
  8
0
  0
BLOCK
  8
0
  2
*D3
 70
     1
 10
0.0
 20
0.0
 30
0.0
  3
*D3
  1

  0
LINE
  5
90
  8
0
  6
BYBLOCK
 62
     0
 10
324.645591
 20
36.219039
 30
0.0
 11
325.103622
 21
36.219039
 31
0.0
  0
LINE
  5
91
  8
0
  6
BYBLOCK
 62
     0
 10
324.645591
 20
34.519039
 30
0.0
 11
325.103622
 21
34.519039
 31
0.0
  0
LINE
  5
92
  8
0
  6
BYBLOCK
 62
     0
 10
325.088622
 20
36.069039
 30
0.0
 11
325.088622
 21
34.669039
 31
0.0
  0
SOLID
  5
93
  8
0
  6
BYBLOCK
 62
     0
 10
325.063622
 20
36.069039
 30
0.0
 11
325.113622
 21
36.069039
 31
0.0
 12
325.088622
 22
36.219039
 32
0.0
 13
325.088622
 23
36.219039
 33
0.0
  0
SOLID
  5
94
  8
0
  6
BYBLOCK
 62
     0
 10
325.063622
 20
34.669039
 30
0.0
 11
325.113622
 21
34.669039
 31
0.0
 12
325.088622
 22
34.519039
 32
0.0
 13
325.088622
 23
34.519039
 33
0.0
  0
TEXT
  8
0
  40
0.075
  5
196
  62
0
  72
0
  71
0
 10
324.864
 20
35.2363
 30
0.000000
  1
1.70
  7
ROMANC
  0
POINT
  5
96
  8
DEFPOINTS
  6
BYBLOCK
 62
     0
 10
324.630591
 20
36.219039
 30
0.0
  0
POINT
  5
97
  8
DEFPOINTS
  6
BYBLOCK
 62
     0
 10
324.630591
 20
34.519039
 30
0.0
  0
POINT
  5
98
  8
DEFPOINTS
  6
BYBLOCK
 62
     0
 10
325.088622
 20
34.519039
 30
0.0
  0
ENDBLK
  5
99
  8
0
  0
BLOCK
  8
0
  2
*D5
 70
     1
 10
0.0
 20
0.0
 30
0.0
  3
*D5
  1

  0
LINE
  5
C0
  8
0
  6
BYBLOCK
 62
     0
 10
322.730591
 20
34.504039
 30
0.0
 11
322.730591
 21
33.951746
 31
0.0
  0
LINE
  5
C1
  8
0
  6
BYBLOCK
 62
     0
 10
324.630591
 20
34.504039
 30
0.0
 11
324.630591
 21
33.951746
 31
0.0
  0
LINE
  5
C2
  8
0
  6
BYBLOCK
 62
     0
 10
322.880591
 20
33.966746
 30
0.0
 11
324.480591
 21
33.966746
 31
0.0
  0
SOLID
  5
C3
  8
0
  6
BYBLOCK
 62
     0
 10
322.880591
 20
33.991746
 30
0.0
 11
322.880591
 21
33.941746
 31
0.0
 12
322.730591
 22
33.966746
 32
0.0
 13
322.730591
 23
33.966746
 33
0.0
  0
SOLID
  5
C4
  8
0
  6
BYBLOCK
 62
     0
 10
324.480591
 20
33.991746
 30
0.0
 11
324.480591
 21
33.941746
 31
0.0
 12
324.630591
 22
33.966746
 32
0.0
 13
324.630591
 23
33.966746
 33
0.0
  0
TEXT
  8
0
  40
0.075
  5
197
  62
0
  72
0
  71
0
 10
323.531
 20
33.9090
 30
0.000000
  1
1.90
  7
ROMANC
  0
POINT
  5
C6
  8
DEFPOINTS
  6
BYBLOCK
 62
     0
 10
322.730591
 20
34.519039
 30
0.0
  0
POINT
  5
C7
  8
DEFPOINTS
  6
BYBLOCK
 62
     0
 10
324.630591
 20
34.519039
 30
0.0
  0
POINT
  5
C8
  8
DEFPOINTS
  6
BYBLOCK
 62
     0
 10
324.630591
 20
33.966746
 30
0.0
  0
ENDBLK
  5
C9
  8
0
  0
BLOCK
  8
0
  2
*D6
 70
     1
 10
0.0
 20
0.0
 30
0.0
  3
*D6
  1

  0
LINE
  5
107
  8
0
  6
BYBLOCK
 62
     0
 10
324.645591
 20
34.519039
 30
0.0
 11
325.103622
 21
34.519039
 31
0.0
  0
LINE
  5
108
  8
0
  6
BYBLOCK
 62
     0
 10
323.695591
 20
34.369039
 30
0.0
 11
325.103622
 21
34.369039
 31
0.0
  0
LINE
  5
109
  8
0
  6
BYBLOCK
 62
     0
 10
325.088622
 20
34.669039
 30
0.0
 11
325.088622
 21
34.819039
 31
0.0
  0
LINE
  5
10A
  8
0
  6
BYBLOCK
 62
     0
 10
325.088622
 20
34.219039
 30
0.0
 11
325.088622
 21
34.069039
 31
0.0
  0
TEXT
  8
0
  40
0.075
  5
198
  62
0
  72
0
  71
0
 10
324.851
 20
34.0793
 30
0.000000
  1
0.15
  7
ROMANC
  0
LINE
  5
10C
  8
0
  6
BYBLOCK
 62
     0
 10
325.088622
 20
34.519039
 30
0.0
 11
325.088622
 21
34.369039
 31
0.0
  0
LINE
  5
10D
  8
0
  6
BYBLOCK
 62
     0
 10
325.088622
 20
34.519039
 30
0.0
 11
325.088622
 21
34.369039
 31
0.0
  0
SOLID
  5
10E
  8
0
  6
BYBLOCK
 62
     0
 10
325.063622
 20
34.669039
 30
0.0
 11
325.113622
 21
34.669039
 31
0.0
 12
325.088622
 22
34.519039
 32
0.0
 13
325.088622
 23
34.519039
 33
0.0
  0
SOLID
  5
10F
  8
0
  6
BYBLOCK
 62
     0
 10
325.063622
 20
34.219039
 30
0.0
 11
325.113622
 21
34.219039
 31
0.0
 12
325.088622
 22
34.369039
 32
0.0
 13
325.088622
 23
34.369039
 33
0.0
  0
POINT
  5
110
  8
DEFPOINTS
  6
BYBLOCK
 62
     0
 10
324.630591
 20
34.519039
 30
0.0
  0
POINT
  5
111
  8
DEFPOINTS
  6
BYBLOCK
 62
     0
 10
323.680591
 20
34.369039
 30
0.0
  0
POINT
  5
112
  8
DEFPOINTS
  6
BYBLOCK
 62
     0
 10
325.088622
 20
34.369039
 30
0.0
  0
ENDBLK
  5
113
  8
0
  0
BLOCK
  8
0
  2
*D7
 70
     1
 10
0.0
 20
0.0
 30
0.0
  3
*D7
  1

  0
LINE
  5
116
  8
0
  6
BYBLOCK
 62
     0
 10
324.645591
 20
36.219039
 30
0.0
 11
325.501023
 21
36.219039
 31
0.0
  0
LINE
  5
117
  8
0
  6
BYBLOCK
 62
     0
 10
323.695591
 20
34.369039
 30
0.0
 11
325.501023
 21
34.369039
 31
0.0
  0
LINE
  5
118
  8
0
  6
BYBLOCK
 62
     0
 10
325.486023
 20
36.069039
 30
0.0
 11
325.486023
 21
34.519039
 31
0.0
  0
SOLID
  5
119
  8
0
  6
BYBLOCK
 62
     0
 10
325.461023
 20
36.069039
 30
0.0
 11
325.511023
 21
36.069039
 31
0.0
 12
325.486023
 22
36.219039
 32
0.0
 13
325.486023
 23
36.219039
 33
0.0
  0
SOLID
  5
11A
  8
0
  6
BYBLOCK
 62
     0
 10
325.461023
 20
34.519039
 30
0.0
 11
325.511023
 21
34.519039
 31
0.0
 12
325.486023
 22
34.369039
 32
0.0
 13
325.486023
 23
34.369039
 33
0.0
  0
TEXT
  8
0
  40
0.075
  5
199
  62
0
  72
0
  71
0
 10
325.261
 20
35.1613
 30
0.000000
  1
1.85
  7
ROMANC
  0
POINT
  5
11C
  8
DEFPOINTS
  6
BYBLOCK
 62
     0
 10
324.630591
 20
36.219039
 30
0.0
  0
POINT
  5
11D
  8
DEFPOINTS
  6
BYBLOCK
 62
     0
 10
323.680591
 20
34.369039
 30
0.0
  0
POINT
  5
11E
  8
DEFPOINTS
  6
BYBLOCK
 62
     0
 10
325.486023
 20
34.369039
 30
0.0
  0
ENDBLK
  5
11F
  8
0
  0
BLOCK
  8
0
  2
*D8
 70
     1
 10
0.0
 20
0.0
 30
0.0
  3
*D8
  1

  0
LINE
  5
15E
  8
0
  6
BYBLOCK
 62
     0
 10
324.092828
 20
34.534366
 30
0.0
 11
324.092828
 21
34.190229
 31
0.0
  0
LINE
  5
15F
  8
0
  6
BYBLOCK
 62
     0
 10
325.542828
 20
34.534366
 30
0.0
 11
325.542828
 21
34.190229
 31
0.0
  0
LINE
  5
160
  8
0
  6
BYBLOCK
 62
     0
 10
324.242828
 20
34.205229
 30
0.0
 11
325.392828
 21
34.205229
 31
0.0
  0
SOLID
  5
161
  8
0
  6
BYBLOCK
 62
     0
 10
324.242828
 20
34.230229
 30
0.0
 11
324.242828
 21
34.180229
 31
0.0
 12
324.092828
 22
34.205229
 32
0.0
 13
324.092828
 23
34.205229
 33
0.0
  0
SOLID
  5
162
  8
0
  6
BYBLOCK
 62
     0
 10
325.392828
 20
34.230229
 30
0.0
 11
325.392828
 21
34.180229
 31
0.0
 12
325.542828
 22
34.205229
 32
0.0
 13
325.542828
 23
34.205229
 33
0.0
  0
TEXT
  8
0
  40
0.075
  5
19A
  62
0
  72
0
  71
0
 10
324.668
 20
34.1475
 30
0.000000
  1
1.45
  7
ROMANC
  0
POINT
  5
164
  8
DEFPOINTS
  6
BYBLOCK
 62
     0
 10
324.092828
 20
34.549366
 30
0.0
  0
POINT
  5
165
  8
DEFPOINTS
  6
BYBLOCK
 62
     0
 10
325.542828
 20
34.549366
 30
0.0
  0
POINT
  5
166
  8
DEFPOINTS
  6
BYBLOCK
 62
     0
 10
325.542828
 20
34.205229
 30
0.0
  0
ENDBLK
  5
167
  8
0
  0
BLOCK
  8
0
  2
*D9
 70
     1
 10
0.0
 20
0.0
 30
0.0
  3
*D9
  1

  0
LINE
  5
16B
  8
0
  6
BYBLOCK
 62
     0
 10
324.832828
 20
35.149366
 30
0.0
 11
325.982545
 21
35.149366
 31
0.0
  0
LINE
  5
16C
  8
0
  6
BYBLOCK
 62
     0
 10
324.832828
 20
34.549366
 30
0.0
 11
325.982545
 21
34.549366
 31
0.0
  0
LINE
  5
16D
  8
0
  6
BYBLOCK
 62
     0
 10
325.967545
 20
34.999366
 30
0.0
 11
325.967545
 21
34.699366
 31
0.0
  0
SOLID
  5
16E
  8
0
  6
BYBLOCK
 62
     0
 10
325.942545
 20
34.999366
 30
0.0
 11
325.992545
 21
34.999366
 31
0.0
 12
325.967545
 22
35.149366
 32
0.0
 13
325.967545
 23
35.149366
 33
0.0
  0
SOLID
  5
16F
  8
0
  6
BYBLOCK
 62
     0
 10
325.942545
 20
34.699366
 30
0.0
 11
325.992545
 21
34.699366
 31
0.0
 12
325.967545
 22
34.549366
 32
0.0
 13
325.967545
 23
34.549366
 33
0.0
  0
TEXT
  8
0
  40
0.075
  5
19B
  62
0
  72
0
  71
0
 10
325.743
 20
34.7166
 30
0.000000
  1
0.60
  7
ROMANC
  0
POINT
  5
171
  8
DEFPOINTS
  6
BYBLOCK
 62
     0
 10
324.817828
 20
35.149366
 30
0.0
  0
POINT
  5
172
  8
DEFPOINTS
  6
BYBLOCK
 62
     0
 10
324.817828
 20
34.549366
 30
0.0
  0
POINT
  5
173
  8
DEFPOINTS
  6
BYBLOCK
 62
     0
 10
325.967545
 20
34.549366
 30
0.0
  0
ENDBLK
  5
174
  8
0
  0
ENDSEC
  0
SECTION
  2
ENTITIES
  0
LINE
  5
27
  8
0
 10
329.348696
 20
29.863623
 30
0.0
 11
329.348696
 21
44.713623
 31
0.0
  0
LINE
  5
28
  8
0
 10
318.848696
 20
44.713623
 30
0.0
 11
318.848696
 21
29.863623
 31
0.0
  0
LINE
  5
29
  8
0
 10
318.848696
 20
29.863623
 30
0.0
 11
329.348696
 21
29.863623
 31
0.0
  0
TEXT
  5
2A
  8
0
 10
321.378668
 20
42.309482
 30
0.0
 40
0.3
  1
TIPUS   NT65B
  7
ROMANC
  0
TEXT
  5
2D
  8
0
 10
321.340746
 20
40.527599
 30
0.0
 40
0.3
  1
P = 34,9 dm
  7
ROMANC
  0
TEXT
  5
2E
  8
0
 10
321.391762
 20
41.225178
 30
0.0
 40
0.3
  1
S = 65 dm
  7
ROMANC
  0
TEXT
  5
2F
  8
0
 10
321.378668
 20
41.823768
 30
0.0
 40
0.3
  1
ESCALA  1:50
  7
ROMANC
  0
TEXT
  5
30
  8
0
 10
324.350837
 20
41.531094
 30
0.0
 40
0.1
  1
2
  7
ROMANC
  0
LINE
  5
31
  8
0
 10
329.348696
 20
44.713623
 30
0.0
 11
318.848696
 21
44.713623
 31
0.0
  0
LINE
  5
17D
  8
0
 10
322.90229
 20
34.534366
 30
0.0
 11
324.388097
 21
34.534366
 31
0.0
  0
ARC
  5
17E
  8
0
 10
323.645193
 20
34.411345
 30
0.0
 40
0.753021
 50
9.402544
 51
170.597456
  0
LINE
  5
17F
  8
0
 10
322.911187
 20
34.541866
 30
0.0
 11
324.3792
 21
34.541866
 31
0.0
  0
ARC
  5
180
  8
0
 10
323.645193
 20
34.411345
 30
0.0
 40
0.745521
 50
10.082927
 51
169.917073
  0
LINE
  5
181
  8
0
 10
322.920193
 20
34.549366
 30
0.0
 11
324.370193
 21
34.549366
 31
0.0
  0
ARC
  5
182
  8
0
 10
323.645193
 20
34.411345
 30
0.0
 40
0.738021
 50
10.778624
 51
169.221376
  0
LINE
  5
183
  8
0
  6
BYBLOCK
 62
     0
 10
323.660193
 20
35.149366
 30
0.0
 11
324.80991
 21
35.149366
 31
0.0
  0
LINE
  5
184
  8
0
  6
BYBLOCK
 62
     0
 10
323.660193
 20
34.549366
 30
0.0
 11
324.80991
 21
34.549366
 31
0.0
  0
LINE
  5
185
  8
0
  6
BYBLOCK
 62
     0
 10
324.79491
 20
34.999366
 30
0.0
 11
324.79491
 21
34.699366
 31
0.0
  0
SOLID
  5
186
  8
0
  6
BYBLOCK
 62
     0
 10
324.76991
 20
34.999366
 30
0.0
 11
324.81991
 21
34.999366
 31
0.0
 12
324.79491
 22
35.149366
 32
0.0
 13
324.79491
 23
35.149366
 33
0.0
  0
SOLID
  5
187
  8
0
  6
BYBLOCK
 62
     0
 10
324.76991
 20
34.699366
 30
0.0
 11
324.81991
 21
34.699366
 31
0.0
 12
324.79491
 22
34.549366
 32
0.0
 13
324.79491
 23
34.549366
 33
0.0
  0
TEXT
  8
0
  40
0.075
  5
19C
  62
0
  72
0
  71
0
 10
324.570
 20
34.7166
 30
0.000000
  1
0.60
  7
ROMANC
  0
POINT
  5
189
  8
DEFPOINTS
  6
BYBLOCK
 62
     0
 10
323.645193
 20
35.149366
 30
0.0
  0
POINT
  5
18A
  8
DEFPOINTS
  6
BYBLOCK
 62
     0
 10
323.645193
 20
34.549366
 30
0.0
  0
POINT
  5
18B
  8
DEFPOINTS
  6
BYBLOCK
 62
     0
 10
324.79491
 20
34.549366
 30
0.0
  0
LINE
  5
18C
  8
0
  6
BYBLOCK
 62
     0
 10
322.920193
 20
34.534366
 30
0.0
 11
322.920193
 21
34.190229
 31
0.0
  0
LINE
  5
18D
  8
0
  6
BYBLOCK
 62
     0
 10
324.370193
 20
34.534366
 30
0.0
 11
324.370193
 21
34.190229
 31
0.0
  0
LINE
  5
18E
  8
0
  6
BYBLOCK
 62
     0
 10
323.070193
 20
34.205229
 30
0.0
 11
324.220193
 21
34.205229
 31
0.0
  0
SOLID
  5
18F
  8
0
  6
BYBLOCK
 62
     0
 10
323.070193
 20
34.230229
 30
0.0
 11
323.070193
 21
34.180229
 31
0.0
 12
322.920193
 22
34.205229
 32
0.0
 13
322.920193
 23
34.205229
 33
0.0
  0
SOLID
  5
190
  8
0
  6
BYBLOCK
 62
     0
 10
324.220193
 20
34.230229
 30
0.0
 11
324.220193
 21
34.180229
 31
0.0
 12
324.370193
 22
34.205229
 32
0.0
 13
324.370193
 23
34.205229
 33
0.0
  0
TEXT
  8
0
  40
0.075
  5
19D
  62
0
  72
0
  71
0
 10
323.495
 20
34.1475
 30
0.000000
  1
1.45
  7
ROMANC
  0
POINT
  5
192
  8
DEFPOINTS
  6
BYBLOCK
 62
     0
 10
322.920193
 20
34.549366
 30
0.0
  0
POINT
  5
193
  8
DEFPOINTS
  6
BYBLOCK
 62
     0
 10
324.370193
 20
34.549366
 30
0.0
  0
POINT
  5
194
  8
DEFPOINTS
  6
BYBLOCK
 62
     0
 10
324.370193
 20
34.205229
 30
0.0
  0
ENDSEC
  0
EOF
