  0
SECTION
  2
HEADER
  9
$ACADVER
  1
AC1009
  9
$INSBASE
 10
105.464027
 20
-4.528761
 30
0.0
  9
$EXTMIN
 10
281.395795
 20
29.897444
 30
0.0
  9
$EXTMAX
 10
291.895795
 20
44.747444
 30
0.0
  9
$LIMMIN
 10
0.0
 20
0.0
  9
$LIMMAX
 10
410.0
 20
287.0
  9
$ORTHOMODE
 70
     0
  9
$REGENMODE
 70
     1
  9
$FILLMODE
 70
     1
  9
$QTEXTMODE
 70
     0
  9
$MIRRTEXT
 70
     1
  9
$DRAGMODE
 70
     2
  9
$LTSCALE
 40
25.0
  9
$OSMODE
 70
    32
  9
$ATTMODE
 70
     1
  9
$TEXTSIZE
 40
0.1
  9
$TRACEWID
 40
1.0
  9
$TEXTSTYLE
  7
ROMANC
  9
$CLAYER
  8
0
  9
$CELTYPE
  6
BYLAYER
  9
$CECOLOR
 62
   256
  9
$DIMSCALE
 40
1.5
  9
$DIMASZ
 40
0.1
  9
$DIMEXO
 40
0.01
  9
$DIMDLI
 40
7.0
  9
$DIMRND
 40
0.0
  9
$DIMDLE
 40
0.0
  9
$DIMEXE
 40
0.01
  9
$DIMTP
 40
0.0
  9
$DIMTM
 40
0.0
  9
$DIMTXT
 40
0.05
  9
$DIMCEN
 40
0.1
  9
$DIMTSZ
 40
0.0
  9
$DIMTOL
 70
     0
  9
$DIMLIM
 70
     0
  9
$DIMTIH
 70
     0
  9
$DIMTOH
 70
     0
  9
$DIMSE1
 70
     0
  9
$DIMSE2
 70
     0
  9
$DIMTAD
 70
     1
  9
$DIMZIN
 70
     0
  9
$DIMBLK
  1

  9
$DIMASO
 70
     1
  9
$DIMSHO
 70
     0
  9
$DIMPOST
  1

  9
$DIMAPOST
  1

  9
$DIMALT
 70
     0
  9
$DIMALTD
 70
     2
  9
$DIMALTF
 40
25.4
  9
$DIMLFAC
 40
1.0
  9
$DIMTOFL
 70
     1
  9
$DIMTVP
 40
0.0
  9
$DIMTIX
 70
     1
  9
$DIMSOXD
 70
     0
  9
$DIMSAH
 70
     0
  9
$DIMBLK1
  1

  9
$DIMBLK2
  1

  9
$DIMSTYLE
  2
SILVIA
  9
$DIMCLRD
 70
     0
  9
$DIMCLRE
 70
     0
  9
$DIMCLRT
 70
     0
  9
$DIMTFAC
 40
70.0
  9
$DIMGAP
 40
0.09
  9
$LUNITS
 70
     2
  9
$LUPREC
 70
     2
  9
$SKETCHINC
 40
1.0
  9
$FILLETRAD
 40
0.0
  9
$AUNITS
 70
     0
  9
$AUPREC
 70
     0
  9
$MENU
  1
acad
  9
$ELEVATION
 40
0.0
  9
$PELEVATION
 40
0.0
  9
$THICKNESS
 40
0.0
  9
$LIMCHECK
 70
     0
  9
$BLIPMODE
 70
     0
  9
$CHAMFERA
 40
0.0
  9
$CHAMFERB
 40
0.0
  9
$SKPOLY
 70
     0
  9
$TDCREATE
 40
2450040.677657176
  9
$TDUPDATE
 40
2450128.573245370
  9
$TDINDWG
 40
0.0442436343
  9
$TDUSRTIMER
 40
0.0442436343
  9
$USRTIMER
 70
     1
  9
$ANGBASE
 50
0.0
  9
$ANGDIR
 70
     0
  9
$PDMODE
 70
     0
  9
$PDSIZE
 40
0.0
  9
$PLINEWID
 40
0.0
  9
$COORDS
 70
     2
  9
$SPLFRAME
 70
     0
  9
$SPLINETYPE
 70
     6
  9
$SPLINESEGS
 70
     8
  9
$ATTDIA
 70
     0
  9
$ATTREQ
 70
     1
  9
$HANDLING
 70
     0
  9
$HANDSEED
  5
0
  9
$SURFTAB1
 70
     6
  9
$SURFTAB2
 70
     6
  9
$SURFTYPE
 70
     6
  9
$SURFU
 70
     6
  9
$SURFV
 70
     6
  9
$UCSNAME
  2

  9
$UCSORG
 10
0.0
 20
0.0
 30
0.0
  9
$UCSXDIR
 10
1.0
 20
0.0
 30
0.0
  9
$UCSYDIR
 10
0.0
 20
1.0
 30
0.0
  9
$PUCSNAME
  2

  9
$PUCSORG
 10
0.0
 20
0.0
 30
0.0
  9
$PUCSXDIR
 10
1.0
 20
0.0
 30
0.0
  9
$PUCSYDIR
 10
0.0
 20
1.0
 30
0.0
  9
$USERI1
 70
     0
  9
$USERI2
 70
     0
  9
$USERI3
 70
     0
  9
$USERI4
 70
     0
  9
$USERI5
 70
     0
  9
$USERR1
 40
0.0
  9
$USERR2
 40
0.0
  9
$USERR3
 40
0.0
  9
$USERR4
 40
0.0
  9
$USERR5
 40
0.0
  9
$WORLDVIEW
 70
     1
  9
$SHADEDGE
 70
     3
  9
$SHADEDIF
 70
    70
  9
$TILEMODE
 70
     1
  9
$MAXACTVP
 70
    16
  9
$PINSBASE
 10
0.0
 20
0.0
 30
0.0
  9
$PLIMCHECK
 70
     0
  9
$PEXTMIN
 10
1.000000E+20
 20
1.000000E+20
 30
1.000000E+20
  9
$PEXTMAX
 10
-1.000000E+20
 20
-1.000000E+20
 30
-1.000000E+20
  9
$PLIMMIN
 10
0.0
 20
0.0
  9
$PLIMMAX
 10
12.0
 20
9.0
  9
$UNITMODE
 70
     0
  9
$VISRETAIN
 70
     0
  9
$PLINEGEN
 70
     0
  9
$PSLTSCALE
 70
     0
  9
$TREEDEPTH
 70
  3020
  9
$DWGCODEPAGE
  3
iso8859-1
  0
ENDSEC
  0
SECTION
  2
TABLES
  0
TABLE
  2
VPORT
 70
     2
  0
VPORT
  2
*ACTIVE
 70
     0
 10
0.0
 20
0.0
 11
1.0
 21
1.0
 12
293.570876
 22
37.322444
 13
0.0
 23
0.0
 14
1.0
 24
1.0
 15
10.0
 25
10.0
 16
0.0
 26
0.0
 36
1.0
 17
0.0
 27
0.0
 37
0.0
 40
14.85
 41
1.639742
 42
50.0
 43
0.0
 44
0.0
 50
0.0
 51
0.0
 71
     0
 72
   100
 73
     1
 74
     0
 75
     0
 76
     0
 77
     0
 78
     1
  0
ENDTAB
  0
TABLE
  2
LTYPE
 70
     1
  0
LTYPE
  2
CONTINUOUS
 70
    64
  3
Solid line
 72
    65
 73
     0
 40
0.0
  0
ENDTAB
  0
TABLE
  2
LAYER
 70
     3
  0
LAYER
  2
0
 70
    64
 62
     7
  6
CONTINUOUS
  0
LAYER
  2
MESURA
 70
     0
 62
     7
  6
CONTINUOUS
  0
LAYER
  2
DEFPOINTS
 70
    64
 62
     7
  6
CONTINUOUS
  0
ENDTAB
  0
TABLE
  2
STYLE
 70
     2
  0
STYLE
  2
STANDARD
 70
     0
 40
0.0
 41
1.0
 50
0.0
 71
     0
 42
0.1
  3
txt
  4

  0
STYLE
  2
ROMANC
 70
    64
 40
0.0
 41
1.0
 50
0.0
 71
     0
 42
0.1
  3
romanc
  4

  0
ENDTAB
  0
TABLE
  2
VIEW
 70
     0
  0
ENDTAB
  0
TABLE
  2
UCS
 70
     0
  0
ENDTAB
  0
TABLE
  2
APPID
 70
     1
  0
APPID
  2
ACAD
 70
    64
  0
ENDTAB
  0
TABLE
  2
DIMSTYLE
 70
     1
  0
DIMSTYLE
  2
SILVIA
 70
    64
  3

  4

  5

  6

  7

 40
1.5
 41
0.1
 42
0.01
 43
7.0
 44
0.01
 45
0.0
 46
0.0
 47
0.0
 48
0.0
140
0.05
141
0.1
142
0.0
143
25.4
144
1.0
145
0.0
146
70.0
147
0.09
 71
     0
 72
     0
 73
     0
 74
     0
 75
     0
 76
     0
 77
     1
 78
     0
170
     0
171
     2
172
     1
173
     0
174
     1
175
     0
176
     0
177
     0
178
     0
  0
ENDTAB
  0
ENDSEC
  0
SECTION
  2
BLOCKS
  0
BLOCK
  8
0
  2
*D14
 70
    65
 10
0.0
 20
0.0
 30
0.0
  3
*D
  0
LINE
  8
0
  6
BYBLOCK
 62
     0
 10
286.588878
 20
36.580612
 30
0.0
 11
289.321263
 21
36.580612
 31
0.0
  0
LINE
  8
0
  6
BYBLOCK
 62
     0
 10
286.603978
 20
33.481055
 30
0.0
 11
289.321263
 21
33.481055
 31
0.0
  0
LINE
  8
0
  6
BYBLOCK
 62
     0
 10
289.306263
 20
36.430612
 30
0.0
 11
289.306263
 21
33.631055
 31
0.0
  0
SOLID
  8
0
  6
BYBLOCK
 62
     0
 10
289.281263
 20
36.430612
 30
0.0
 11
289.331263
 21
36.430612
 31
0.0
 12
289.306263
 22
36.580612
 32
0.0
 13
289.306263
 23
36.580612
 33
0.0
  0
SOLID
  8
0
  6
BYBLOCK
 62
     0
 10
289.281263
 20
33.631055
 30
0.0
 11
289.331263
 21
33.631055
 31
0.0
 12
289.306263
 22
33.481055
 32
0.0
 13
289.306263
 23
33.481055
 33
0.0
  0
TEXT
  8
0
  6
BYBLOCK
 62
     0
 10
289.268763
 20
34.905834
 30
0.0
 40
0.075
  1
3.10
 50
90.0
  7
ROMANC
 72
     1
 11
289.231263
 21
35.030834
 31
0.0
 73
     2
  0
POINT
  8
DEFPOINTS
  6
BYBLOCK
 62
     0
 10
286.573878
 20
36.580612
 30
0.0
  0
POINT
  8
DEFPOINTS
  6
BYBLOCK
 62
     0
 10
286.588978
 20
33.481055
 30
0.0
  0
POINT
  8
DEFPOINTS
  6
BYBLOCK
 62
     0
 10
289.306263
 20
33.481055
 30
0.0
  0
ENDBLK
  8
0
  0
BLOCK
  8
0
  2
*D15
 70
    65
 10
0.0
 20
0.0
 30
0.0
  3
*D
  0
LINE
  8
0
  6
BYBLOCK
 62
     0
 10
286.671
 20
36.580141
 30
0.0
 11
288.619503
 21
36.580141
 31
0.0
  0
LINE
  8
0
  6
BYBLOCK
 62
     0
 10
287.889132
 20
35.730612
 30
0.0
 11
288.619503
 21
35.730612
 31
0.0
  0
LINE
  8
0
  6
BYBLOCK
 62
     0
 10
288.604503
 20
36.430141
 30
0.0
 11
288.604503
 21
35.880612
 31
0.0
  0
SOLID
  8
0
  6
BYBLOCK
 62
     0
 10
288.579503
 20
36.430141
 30
0.0
 11
288.629503
 21
36.430141
 31
0.0
 12
288.604503
 22
36.580141
 32
0.0
 13
288.604503
 23
36.580141
 33
0.0
  0
SOLID
  8
0
  6
BYBLOCK
 62
     0
 10
288.579503
 20
35.880612
 30
0.0
 11
288.629503
 21
35.880612
 31
0.0
 12
288.604503
 22
35.730612
 32
0.0
 13
288.604503
 23
35.730612
 33
0.0
  0
TEXT
  8
0
  6
BYBLOCK
 62
     0
 10
288.567003
 20
36.030377
 30
0.0
 40
0.075
  1
0.85
 50
90.0
  7
ROMANC
 72
     1
 11
288.529503
 21
36.155377
 31
0.0
 73
     2
  0
POINT
  8
DEFPOINTS
  6
BYBLOCK
 62
     0
 10
286.656
 20
36.580141
 30
0.0
  0
POINT
  8
DEFPOINTS
  6
BYBLOCK
 62
     0
 10
287.874132
 20
35.730612
 30
0.0
  0
POINT
  8
DEFPOINTS
  6
BYBLOCK
 62
     0
 10
288.604503
 20
35.730612
 30
0.0
  0
ENDBLK
  8
0
  0
BLOCK
  8
0
  2
*D16
 70
    65
 10
0.0
 20
0.0
 30
0.0
  3
*D
  0
LINE
  8
0
  6
BYBLOCK
 62
     0
 10
287.889132
 20
35.730612
 30
0.0
 11
288.619503
 21
35.730612
 31
0.0
  0
LINE
  8
0
  6
BYBLOCK
 62
     0
 10
287.889132
 20
33.980612
 30
0.0
 11
288.619503
 21
33.980612
 31
0.0
  0
LINE
  8
0
  6
BYBLOCK
 62
     0
 10
288.604503
 20
35.580612
 30
0.0
 11
288.604503
 21
34.130612
 31
0.0
  0
SOLID
  8
0
  6
BYBLOCK
 62
     0
 10
288.579503
 20
35.580612
 30
0.0
 11
288.629503
 21
35.580612
 31
0.0
 12
288.604503
 22
35.730612
 32
0.0
 13
288.604503
 23
35.730612
 33
0.0
  0
SOLID
  8
0
  6
BYBLOCK
 62
     0
 10
288.579503
 20
34.130612
 30
0.0
 11
288.629503
 21
34.130612
 31
0.0
 12
288.604503
 22
33.980612
 32
0.0
 13
288.604503
 23
33.980612
 33
0.0
  0
TEXT
  8
0
  6
BYBLOCK
 62
     0
 10
288.567003
 20
34.725255
 30
0.0
 40
0.075
  1
1.75
 50
90.0
  7
ROMANC
 72
     1
 11
288.529503
 21
34.855612
 31
0.0
 73
     2
  0
POINT
  8
DEFPOINTS
  6
BYBLOCK
 62
     0
 10
287.874132
 20
35.730612
 30
0.0
  0
POINT
  8
DEFPOINTS
  6
BYBLOCK
 62
     0
 10
287.874132
 20
33.980612
 30
0.0
  0
POINT
  8
DEFPOINTS
  6
BYBLOCK
 62
     0
 10
288.604503
 20
33.980612
 30
0.0
  0
ENDBLK
  8
0
  0
BLOCK
  8
0
  2
*D17
 70
    65
 10
0.0
 20
0.0
 30
0.0
  3
*D
  0
LINE
  8
0
  6
BYBLOCK
 62
     0
 10
287.889132
 20
33.980612
 30
0.0
 11
288.619503
 21
33.980612
 31
0.0
  0
LINE
  8
0
  6
BYBLOCK
 62
     0
 10
286.618742
 20
33.476404
 30
0.0
 11
288.619503
 21
33.476404
 31
0.0
  0
LINE
  8
0
  6
BYBLOCK
 62
     0
 10
288.604503
 20
34.130612
 30
0.0
 11
288.604503
 21
34.280612
 31
0.0
  0
LINE
  8
0
  6
BYBLOCK
 62
     0
 10
288.604503
 20
33.326404
 30
0.0
 11
288.604503
 21
33.176404
 31
0.0
  0
SOLID
  8
0
  6
BYBLOCK
 62
     0
 10
288.579503
 20
34.130612
 30
0.0
 11
288.629503
 21
34.130612
 31
0.0
 12
288.604503
 22
33.980612
 32
0.0
 13
288.604503
 23
33.980612
 33
0.0
  0
SOLID
  8
0
  6
BYBLOCK
 62
     0
 10
288.579503
 20
33.326404
 30
0.0
 11
288.629503
 21
33.326404
 31
0.0
 12
288.604503
 22
33.476404
 32
0.0
 13
288.604503
 23
33.476404
 33
0.0
  0
LINE
  8
0
  6
BYBLOCK
 62
     0
 10
288.604503
 20
33.980612
 30
0.0
 11
288.604503
 21
33.476404
 31
0.0
  0
TEXT
  8
0
  6
BYBLOCK
 62
     0
 10
288.567003
 20
33.603508
 30
0.0
 40
0.075
  1
0.50
 50
90.0
  7
ROMANC
 72
     1
 11
288.529503
 21
33.728508
 31
0.0
 73
     2
  0
POINT
  8
DEFPOINTS
  6
BYBLOCK
 62
     0
 10
287.874132
 20
33.980612
 30
0.0
  0
POINT
  8
DEFPOINTS
  6
BYBLOCK
 62
     0
 10
286.603742
 20
33.476404
 30
0.0
  0
POINT
  8
DEFPOINTS
  6
BYBLOCK
 62
     0
 10
288.604503
 20
33.476404
 30
0.0
  0
ENDBLK
  8
0
  0
BLOCK
  8
0
  2
*D18
 70
    65
 10
0.0
 20
0.0
 30
0.0
  3
*D
  0
LINE
  8
0
  6
BYBLOCK
 62
     0
 10
285.274132
 20
33.965612
 30
0.0
 11
285.274132
 21
32.304963
 31
0.0
  0
LINE
  8
0
  6
BYBLOCK
 62
     0
 10
287.874132
 20
33.965612
 30
0.0
 11
287.874132
 21
32.304963
 31
0.0
  0
LINE
  8
0
  6
BYBLOCK
 62
     0
 10
285.424132
 20
32.319963
 30
0.0
 11
287.724132
 21
32.319963
 31
0.0
  0
SOLID
  8
0
  6
BYBLOCK
 62
     0
 10
285.424132
 20
32.344963
 30
0.0
 11
285.424132
 21
32.294963
 31
0.0
 12
285.274132
 22
32.319963
 32
0.0
 13
285.274132
 23
32.319963
 33
0.0
  0
SOLID
  8
0
  6
BYBLOCK
 62
     0
 10
287.724132
 20
32.344963
 30
0.0
 11
287.724132
 21
32.294963
 31
0.0
 12
287.874132
 22
32.319963
 32
0.0
 13
287.874132
 23
32.319963
 33
0.0
  0
TEXT
  8
0
  6
BYBLOCK
 62
     0
 10
286.449132
 20
32.357463
 30
0.0
 40
0.075
  1
2.60
  7
ROMANC
 72
     1
 11
286.574132
 21
32.394963
 31
0.0
 73
     2
  0
POINT
  8
DEFPOINTS
  6
BYBLOCK
 62
     0
 10
285.274132
 20
33.980612
 30
0.0
  0
POINT
  8
DEFPOINTS
  6
BYBLOCK
 62
     0
 10
287.874132
 20
33.980612
 30
0.0
  0
POINT
  8
DEFPOINTS
  6
BYBLOCK
 62
     0
 10
287.874132
 20
32.319963
 30
0.0
  0
ENDBLK
  8
0
  0
BLOCK
  8
0
  2
*D19
 70
    65
 10
0.0
 20
0.0
 30
0.0
  3
*D
  0
LINE
  8
0
  6
BYBLOCK
 62
     0
 10
286.224132
 20
33.965612
 30
0.0
 11
286.224132
 21
32.901835
 31
0.0
  0
LINE
  8
0
  6
BYBLOCK
 62
     0
 10
286.924132
 20
33.965612
 30
0.0
 11
286.924132
 21
32.901835
 31
0.0
  0
LINE
  8
0
  6
BYBLOCK
 62
     0
 10
286.074132
 20
32.916835
 30
0.0
 11
285.924132
 21
32.916835
 31
0.0
  0
LINE
  8
0
  6
BYBLOCK
 62
     0
 10
287.074132
 20
32.916835
 30
0.0
 11
287.224132
 21
32.916835
 31
0.0
  0
SOLID
  8
0
  6
BYBLOCK
 62
     0
 10
286.074132
 20
32.941835
 30
0.0
 11
286.074132
 21
32.891835
 31
0.0
 12
286.224132
 22
32.916835
 32
0.0
 13
286.224132
 23
32.916835
 33
0.0
  0
SOLID
  8
0
  6
BYBLOCK
 62
     0
 10
287.074132
 20
32.941835
 30
0.0
 11
287.074132
 21
32.891835
 31
0.0
 12
286.924132
 22
32.916835
 32
0.0
 13
286.924132
 23
32.916835
 33
0.0
  0
LINE
  8
0
  6
BYBLOCK
 62
     0
 10
286.224132
 20
32.916835
 30
0.0
 11
286.924132
 21
32.916835
 31
0.0
  0
TEXT
  8
0
  6
BYBLOCK
 62
     0
 10
286.449132
 20
32.954335
 30
0.0
 40
0.075
  1
0.70
  7
ROMANC
 72
     1
 11
286.574132
 21
32.991835
 31
0.0
 73
     2
  0
POINT
  8
DEFPOINTS
  6
BYBLOCK
 62
     0
 10
286.224132
 20
33.980612
 30
0.0
  0
POINT
  8
DEFPOINTS
  6
BYBLOCK
 62
     0
 10
286.924132
 20
33.980612
 30
0.0
  0
POINT
  8
DEFPOINTS
  6
BYBLOCK
 62
     0
 10
286.924132
 20
32.916835
 30
0.0
  0
ENDBLK
  8
0
  0
ENDSEC
  0
SECTION
  2
ENTITIES
  0
POLYLINE
  8
0
 66
     1
 10
0.0
 20
0.0
 30
0.0
  0
VERTEX
  8
0
 10
108.040631
 20
-16.548467
 30
0.0
 42
0.063415
  0
SEQEND
  8
0
  0
POLYLINE
  8
0
 66
     1
 10
0.0
 20
0.0
 30
0.0
  0
VERTEX
  8
0
 10
86.286488
 20
-15.036857
 30
0.0
 42
0.22708
  0
SEQEND
  8
0
  0
POLYLINE
  8
0
 66
     1
 10
0.0
 20
0.0
 30
0.0
  0
VERTEX
  8
0
 10
72.351426
 20
-14.976331
 30
0.0
 42
0.089446
  0
SEQEND
  8
0
  0
POLYLINE
  8
0
 66
     1
 10
0.0
 20
0.0
 30
0.0
  0
VERTEX
  8
0
 10
97.210524
 20
16.938509
 30
0.0
 42
0.05817
  0
SEQEND
  8
0
  0
POLYLINE
  8
0
 66
     1
 10
0.0
 20
0.0
 30
0.0
  0
VERTEX
  8
0
 10
121.196188
 20
17.602271
 30
0.0
 42
0.156162
  0
SEQEND
  8
0
  0
POLYLINE
  8
0
 66
     1
 10
0.0
 20
0.0
 30
0.0
  0
VERTEX
  8
0
 10
119.340696
 20
34.532686
 30
0.0
 42
0.283046
  0
SEQEND
  8
0
  0
POLYLINE
  8
0
 66
     1
 10
0.0
 20
0.0
 30
0.0
  0
VERTEX
  8
0
 10
157.359637
 20
32.54887
 30
0.0
 42
0.269827
  0
SEQEND
  8
0
  0
POLYLINE
  8
0
 66
     1
 10
0.0
 20
0.0
 30
0.0
  0
VERTEX
  8
0
 10
156.169702
 20
18.299763
 30
0.0
 42
0.066056
  0
SEQEND
  8
0
  0
POLYLINE
  8
0
 66
     1
 10
0.0
 20
0.0
 30
0.0
  0
VERTEX
  8
0
 10
168.512554
 20
1.430566
 30
0.0
 42
0.148501
  0
SEQEND
  8
0
  0
POLYLINE
  8
0
 66
     1
 10
0.0
 20
0.0
 30
0.0
  0
VERTEX
  8
0
 10
168.689549
 20
33.579487
 30
0.0
 42
0.08626
  0
SEQEND
  8
0
  0
POLYLINE
  8
0
 66
     1
 10
0.0
 20
0.0
 30
0.0
  0
VERTEX
  8
0
 10
180.209617
 20
34.197499
 30
0.0
 42
0.059446
  0
SEQEND
  8
0
  0
POLYLINE
  8
0
 66
     1
 10
0.0
 20
0.0
 30
0.0
  0
VERTEX
  8
0
 10
168.213495
 20
14.734069
 30
0.0
 42
0.06661
  0
SEQEND
  8
0
  0
POLYLINE
  8
0
 66
     1
 10
0.0
 20
0.0
 30
0.0
  0
VERTEX
  8
0
 10
180.09759
 20
16.643931
 30
0.0
 42
0.165716
  0
SEQEND
  8
0
  0
POLYLINE
  8
0
 66
     1
 10
0.0
 20
0.0
 30
0.0
  0
VERTEX
  8
0
 10
180.349774
 20
-12.199421
 30
0.0
 42
0.098491
  0
SEQEND
  8
0
  0
POLYLINE
  8
0
 66
     1
 10
0.0
 20
0.0
 30
0.0
  0
VERTEX
  8
0
 10
194.593929
 20
-14.402211
 30
0.0
 42
0.098491
  0
SEQEND
  8
0
  0
POLYLINE
  8
0
 66
     1
 10
0.0
 20
0.0
 30
0.0
  0
VERTEX
  8
0
 10
192.091391
 20
16.821986
 30
0.0
 42
0.129253
  0
SEQEND
  8
0
  0
LINE
  8
0
 10
291.895795
 20
29.897444
 30
0.0
 11
291.895795
 21
44.747444
 31
0.0
  0
TEXT
  8
0
 10
283.887846
 20
40.56142
 30
0.0
 40
0.3
  1
P = 101.6 dm
  7
ROMANC
  0
LINE
  8
0
 10
281.395795
 20
44.747444
 30
0.0
 11
281.395795
 21
29.897444
 31
0.0
  0
LINE
  8
0
 10
281.395795
 20
29.897444
 30
0.0
 11
291.895795
 21
29.897444
 31
0.0
  0
LINE
  8
0
 10
291.895795
 20
44.747444
 30
0.0
 11
281.395795
 21
44.747444
 31
0.0
  0
TEXT
  8
0
 10
287.122271
 20
41.564915
 30
0.0
 40
0.1
  1
2
  7
ROMANC
  0
TEXT
  8
0
 10
283.925768
 20
41.857589
 30
0.0
 40
0.3
  1
ESCALA  1:50
  7
ROMANC
  0
TEXT
  8
0
 10
283.925768
 20
42.343303
 30
0.0
 40
0.3
  1
TIPUS   NT656
  7
ROMANC
  0
TEXT
  8
0
 10
283.938862
 20
41.258999
 30
0.0
 40
0.3
  1
S=  656 dm
  7
ROMANC
  0
POLYLINE
  8
0
 66
     1
 10
0.0
 20
0.0
 30
0.0
  0
VERTEX
  8
0
 10
283.198915
 20
36.569247
 30
0.0
 42
0.199161
  0
SEQEND
  8
0
  0
POLYLINE
  8
0
 66
     1
 10
0.0
 20
0.0
 30
0.0
  0
VERTEX
  8
0
 10
285.441528
 20
36.253145
 30
0.0
 42
0.098491
  0
SEQEND
  8
0
  0
LINE
  8
0
  6
BYBLOCK
 62
     0
 10
286.588878
 20
36.580612
 30
0.0
 11
289.321263
 21
36.580612
 31
0.0
  0
LINE
  8
0
  6
BYBLOCK
 62
     0
 10
286.603978
 20
33.481055
 30
0.0
 11
289.321263
 21
33.481055
 31
0.0
  0
LINE
  8
0
  6
BYBLOCK
 62
     0
 10
289.306263
 20
36.430612
 30
0.0
 11
289.306263
 21
33.631055
 31
0.0
  0
SOLID
  8
0
  6
BYBLOCK
 62
     0
 10
289.281263
 20
36.430612
 30
0.0
 11
289.331263
 21
36.430612
 31
0.0
 12
289.306263
 22
36.580612
 32
0.0
 13
289.306263
 23
36.580612
 33
0.0
  0
SOLID
  8
0
  6
BYBLOCK
 62
     0
 10
289.281263
 20
33.631055
 30
0.0
 11
289.331263
 21
33.631055
 31
0.0
 12
289.306263
 22
33.481055
 32
0.0
 13
289.306263
 23
33.481055
 33
0.0
  0
TEXT
  8
0
  6
BYBLOCK
 62
     0
 10
289.268763
 20
34.905834
 30
0.0
 40
0.075
  1
3.10
 50
90.0
  7
ROMANC
 72
     1
 11
289.231263
 21
35.030834
 31
0.0
 73
     2
  0
POINT
  8
DEFPOINTS
  6
BYBLOCK
 62
     0
 10
286.573878
 20
36.580612
 30
0.0
  0
POINT
  8
DEFPOINTS
  6
BYBLOCK
 62
     0
 10
286.588978
 20
33.481055
 30
0.0
  0
POINT
  8
DEFPOINTS
  6
BYBLOCK
 62
     0
 10
289.306263
 20
33.481055
 30
0.0
  0
LINE
  8
0
 10
287.884132
 20
33.970612
 30
0.0
 11
287.884132
 21
35.730612
 31
0.0
  0
ARC
  8
0
 10
287.305464
 20
35.730612
 30
0.0
 40
0.578669
 50
360.0
 51
32.354385
  0
ARC
  8
0
 10
286.955369
 20
35.508826
 30
0.0
 40
0.993103
 50
32.354385
 51
56.821488
  0
ARC
  8
0
 10
286.725083
 20
35.156624
 30
0.0
 40
1.413909
 50
56.821488
 51
74.846006
  0
ARC
  8
0
 10
286.574132
 20
34.599265
 30
0.0
 40
1.991347
 50
74.846006
 51
90.0
  0
ARC
  8
0
 10
286.574132
 20
34.599265
 30
0.0
 40
1.991347
 50
90.0
 51
105.153994
  0
ARC
  8
0
 10
286.423182
 20
35.156624
 30
0.0
 40
1.413909
 50
105.153994
 51
123.178512
  0
ARC
  8
0
 10
286.192896
 20
35.508826
 30
0.0
 40
0.993103
 50
123.178512
 51
147.645615
  0
ARC
  8
0
 10
285.842801
 20
35.730612
 30
0.0
 40
0.578669
 50
147.645615
 51
180.0
  0
LINE
  8
0
 10
285.264132
 20
35.730612
 30
0.0
 11
285.264132
 21
33.970612
 31
0.0
  0
LINE
  8
0
 10
285.264132
 20
33.970612
 30
0.0
 11
286.214201
 21
33.970612
 31
0.0
  0
ARC
  8
0
 10
286.935964
 20
33.980612
 30
0.0
 40
0.721831
 50
180.793781
 51
196.16949
  0
ARC
  8
0
 10
286.758011
 20
33.929015
 30
0.0
 40
0.536549
 50
196.16949
 51
214.99202
  0
ARC
  8
0
 10
286.645364
 20
33.850162
 30
0.0
 40
0.399046
 50
214.99202
 51
239.385769
  0
ARC
  8
0
 10
286.574132
 20
33.729784
 30
0.0
 40
0.259172
 50
239.385769
 51
270.0
  0
ARC
  8
0
 10
286.574132
 20
33.729784
 30
0.0
 40
0.259172
 50
270.0
 51
300.614231
  0
ARC
  8
0
 10
286.5029
 20
33.850162
 30
0.0
 40
0.399046
 50
300.614231
 51
325.00798
  0
ARC
  8
0
 10
286.390254
 20
33.929015
 30
0.0
 40
0.536549
 50
325.00798
 51
343.83051
  0
ARC
  8
0
 10
286.212301
 20
33.980612
 30
0.0
 40
0.721831
 50
343.83051
 51
359.206219
  0
LINE
  8
0
 10
286.934063
 20
33.970612
 30
0.0
 11
287.884132
 21
33.970612
 31
0.0
  0
LINE
  8
0
 10
287.864132
 20
33.990612
 30
0.0
 11
287.864132
 21
35.730612
 31
0.0
  0
ARC
  8
0
 10
287.305464
 20
35.730612
 30
0.0
 40
0.558669
 50
0.0
 51
32.354385
  0
ARC
  8
0
 10
286.955369
 20
35.508826
 30
0.0
 40
0.973103
 50
32.354385
 51
56.821488
  0
ARC
  8
0
 10
286.725083
 20
35.156624
 30
0.0
 40
1.393909
 50
56.821488
 51
74.846006
  0
ARC
  8
0
 10
286.574132
 20
34.599265
 30
0.0
 40
1.971347
 50
74.846006
 51
90.0
  0
ARC
  8
0
 10
286.574132
 20
34.599265
 30
0.0
 40
1.971347
 50
90.0
 51
105.153994
  0
ARC
  8
0
 10
286.423182
 20
35.156624
 30
0.0
 40
1.393909
 50
105.153994
 51
123.178512
  0
ARC
  8
0
 10
286.192896
 20
35.508826
 30
0.0
 40
0.973103
 50
123.178512
 51
147.645615
  0
ARC
  8
0
 10
285.842801
 20
35.730612
 30
0.0
 40
0.558669
 50
147.645615
 51
180.0
  0
LINE
  8
0
 10
285.284132
 20
35.730612
 30
0.0
 11
285.284132
 21
33.990612
 31
0.0
  0
LINE
  8
0
 10
285.284132
 20
33.990612
 30
0.0
 11
286.234203
 21
33.990612
 31
0.0
  0
ARC
  8
0
 10
286.935964
 20
33.980612
 30
0.0
 40
0.701831
 50
179.183597
 51
196.16949
  0
ARC
  8
0
 10
286.758011
 20
33.929015
 30
0.0
 40
0.516549
 50
196.16949
 51
214.99202
  0
ARC
  8
0
 10
286.645364
 20
33.850162
 30
0.0
 40
0.379046
 50
214.99202
 51
239.385769
  0
ARC
  8
0
 10
286.574132
 20
33.729784
 30
0.0
 40
0.239172
 50
239.385769
 51
270.0
  0
ARC
  8
0
 10
286.574132
 20
33.729784
 30
0.0
 40
0.239172
 50
270.0
 51
300.614231
  0
ARC
  8
0
 10
286.5029
 20
33.850162
 30
0.0
 40
0.379046
 50
300.614231
 51
325.00798
  0
ARC
  8
0
 10
286.390254
 20
33.929015
 30
0.0
 40
0.516549
 50
325.00798
 51
343.83051
  0
ARC
  8
0
 10
286.212301
 20
33.980612
 30
0.0
 40
0.701831
 50
343.83051
 51
0.816403
  0
LINE
  8
0
 10
286.914061
 20
33.990612
 30
0.0
 11
287.864132
 21
33.990612
 31
0.0
  0
LINE
  8
0
  6
BYBLOCK
 62
     0
 10
286.224132
 20
33.965612
 30
0.0
 11
286.224132
 21
32.901835
 31
0.0
  0
LINE
  8
0
  6
BYBLOCK
 62
     0
 10
286.924132
 20
33.965612
 30
0.0
 11
286.924132
 21
32.901835
 31
0.0
  0
LINE
  8
0
  6
BYBLOCK
 62
     0
 10
286.074132
 20
32.916835
 30
0.0
 11
285.924132
 21
32.916835
 31
0.0
  0
LINE
  8
0
  6
BYBLOCK
 62
     0
 10
287.074132
 20
32.916835
 30
0.0
 11
287.224132
 21
32.916835
 31
0.0
  0
SOLID
  8
0
  6
BYBLOCK
 62
     0
 10
286.074132
 20
32.941835
 30
0.0
 11
286.074132
 21
32.891835
 31
0.0
 12
286.224132
 22
32.916835
 32
0.0
 13
286.224132
 23
32.916835
 33
0.0
  0
SOLID
  8
0
  6
BYBLOCK
 62
     0
 10
287.074132
 20
32.941835
 30
0.0
 11
287.074132
 21
32.891835
 31
0.0
 12
286.924132
 22
32.916835
 32
0.0
 13
286.924132
 23
32.916835
 33
0.0
  0
LINE
  8
0
  6
BYBLOCK
 62
     0
 10
286.224132
 20
32.916835
 30
0.0
 11
286.924132
 21
32.916835
 31
0.0
  0
TEXT
  8
0
  6
BYBLOCK
 62
     0
 10
286.449132
 20
32.954335
 30
0.0
 40
0.075
  1
0.70
  7
ROMANC
 72
     1
 11
286.574132
 21
32.991835
 31
0.0
 73
     2
  0
POINT
  8
DEFPOINTS
  6
BYBLOCK
 62
     0
 10
286.224132
 20
33.980612
 30
0.0
  0
POINT
  8
DEFPOINTS
  6
BYBLOCK
 62
     0
 10
286.924132
 20
33.980612
 30
0.0
  0
POINT
  8
DEFPOINTS
  6
BYBLOCK
 62
     0
 10
286.924132
 20
32.916835
 30
0.0
  0
LINE
  8
0
  6
BYBLOCK
 62
     0
 10
285.274132
 20
33.965612
 30
0.0
 11
285.274132
 21
32.304963
 31
0.0
  0
LINE
  8
0
  6
BYBLOCK
 62
     0
 10
287.874132
 20
33.965612
 30
0.0
 11
287.874132
 21
32.304963
 31
0.0
  0
LINE
  8
0
  6
BYBLOCK
 62
     0
 10
285.424132
 20
32.319963
 30
0.0
 11
287.724132
 21
32.319963
 31
0.0
  0
SOLID
  8
0
  6
BYBLOCK
 62
     0
 10
285.424132
 20
32.344963
 30
0.0
 11
285.424132
 21
32.294963
 31
0.0
 12
285.274132
 22
32.319963
 32
0.0
 13
285.274132
 23
32.319963
 33
0.0
  0
SOLID
  8
0
  6
BYBLOCK
 62
     0
 10
287.724132
 20
32.344963
 30
0.0
 11
287.724132
 21
32.294963
 31
0.0
 12
287.874132
 22
32.319963
 32
0.0
 13
287.874132
 23
32.319963
 33
0.0
  0
TEXT
  8
0
  6
BYBLOCK
 62
     0
 10
286.449132
 20
32.357463
 30
0.0
 40
0.075
  1
2.60
  7
ROMANC
 72
     1
 11
286.574132
 21
32.394963
 31
0.0
 73
     2
  0
POINT
  8
DEFPOINTS
  6
BYBLOCK
 62
     0
 10
285.274132
 20
33.980612
 30
0.0
  0
POINT
  8
DEFPOINTS
  6
BYBLOCK
 62
     0
 10
287.874132
 20
33.980612
 30
0.0
  0
POINT
  8
DEFPOINTS
  6
BYBLOCK
 62
     0
 10
287.874132
 20
32.319963
 30
0.0
  0
LINE
  8
0
  6
BYBLOCK
 62
     0
 10
287.889132
 20
33.980612
 30
0.0
 11
288.619503
 21
33.980612
 31
0.0
  0
LINE
  8
0
  6
BYBLOCK
 62
     0
 10
286.618742
 20
33.476404
 30
0.0
 11
288.619503
 21
33.476404
 31
0.0
  0
LINE
  8
0
  6
BYBLOCK
 62
     0
 10
288.604503
 20
34.130612
 30
0.0
 11
288.604503
 21
34.280612
 31
0.0
  0
LINE
  8
0
  6
BYBLOCK
 62
     0
 10
288.604503
 20
33.326404
 30
0.0
 11
288.604503
 21
33.176404
 31
0.0
  0
SOLID
  8
0
  6
BYBLOCK
 62
     0
 10
288.579503
 20
34.130612
 30
0.0
 11
288.629503
 21
34.130612
 31
0.0
 12
288.604503
 22
33.980612
 32
0.0
 13
288.604503
 23
33.980612
 33
0.0
  0
SOLID
  8
0
  6
BYBLOCK
 62
     0
 10
288.579503
 20
33.326404
 30
0.0
 11
288.629503
 21
33.326404
 31
0.0
 12
288.604503
 22
33.476404
 32
0.0
 13
288.604503
 23
33.476404
 33
0.0
  0
LINE
  8
0
  6
BYBLOCK
 62
     0
 10
288.604503
 20
33.980612
 30
0.0
 11
288.604503
 21
33.476404
 31
0.0
  0
TEXT
  8
0
  6
BYBLOCK
 62
     0
 10
288.567003
 20
33.603508
 30
0.0
 40
0.075
  1
0.50
 50
90.0
  7
ROMANC
 72
     1
 11
288.529503
 21
33.728508
 31
0.0
 73
     2
  0
POINT
  8
DEFPOINTS
  6
BYBLOCK
 62
     0
 10
287.874132
 20
33.980612
 30
0.0
  0
POINT
  8
DEFPOINTS
  6
BYBLOCK
 62
     0
 10
286.603742
 20
33.476404
 30
0.0
  0
POINT
  8
DEFPOINTS
  6
BYBLOCK
 62
     0
 10
288.604503
 20
33.476404
 30
0.0
  0
LINE
  8
0
  6
BYBLOCK
 62
     0
 10
287.889132
 20
35.730612
 30
0.0
 11
288.619503
 21
35.730612
 31
0.0
  0
LINE
  8
0
  6
BYBLOCK
 62
     0
 10
287.889132
 20
33.980612
 30
0.0
 11
288.619503
 21
33.980612
 31
0.0
  0
LINE
  8
0
  6
BYBLOCK
 62
     0
 10
288.604503
 20
35.580612
 30
0.0
 11
288.604503
 21
34.130612
 31
0.0
  0
SOLID
  8
0
  6
BYBLOCK
 62
     0
 10
288.579503
 20
35.580612
 30
0.0
 11
288.629503
 21
35.580612
 31
0.0
 12
288.604503
 22
35.730612
 32
0.0
 13
288.604503
 23
35.730612
 33
0.0
  0
SOLID
  8
0
  6
BYBLOCK
 62
     0
 10
288.579503
 20
34.130612
 30
0.0
 11
288.629503
 21
34.130612
 31
0.0
 12
288.604503
 22
33.980612
 32
0.0
 13
288.604503
 23
33.980612
 33
0.0
  0
TEXT
  8
0
  6
BYBLOCK
 62
     0
 10
288.567003
 20
34.725255
 30
0.0
 40
0.075
  1
1.75
 50
90.0
  7
ROMANC
 72
     1
 11
288.529503
 21
34.855612
 31
0.0
 73
     2
  0
POINT
  8
DEFPOINTS
  6
BYBLOCK
 62
     0
 10
287.874132
 20
35.730612
 30
0.0
  0
POINT
  8
DEFPOINTS
  6
BYBLOCK
 62
     0
 10
287.874132
 20
33.980612
 30
0.0
  0
POINT
  8
DEFPOINTS
  6
BYBLOCK
 62
     0
 10
288.604503
 20
33.980612
 30
0.0
  0
LINE
  8
0
  6
BYBLOCK
 62
     0
 10
286.671
 20
36.580141
 30
0.0
 11
288.619503
 21
36.580141
 31
0.0
  0
LINE
  8
0
  6
BYBLOCK
 62
     0
 10
287.889132
 20
35.730612
 30
0.0
 11
288.619503
 21
35.730612
 31
0.0
  0
LINE
  8
0
  6
BYBLOCK
 62
     0
 10
288.604503
 20
36.430141
 30
0.0
 11
288.604503
 21
35.880612
 31
0.0
  0
SOLID
  8
0
  6
BYBLOCK
 62
     0
 10
288.579503
 20
36.430141
 30
0.0
 11
288.629503
 21
36.430141
 31
0.0
 12
288.604503
 22
36.580141
 32
0.0
 13
288.604503
 23
36.580141
 33
0.0
  0
SOLID
  8
0
  6
BYBLOCK
 62
     0
 10
288.579503
 20
35.880612
 30
0.0
 11
288.629503
 21
35.880612
 31
0.0
 12
288.604503
 22
35.730612
 32
0.0
 13
288.604503
 23
35.730612
 33
0.0
  0
TEXT
  8
0
  6
BYBLOCK
 62
     0
 10
288.567003
 20
36.030377
 30
0.0
 40
0.075
  1
0.85
 50
90.0
  7
ROMANC
 72
     1
 11
288.529503
 21
36.155377
 31
0.0
 73
     2
  0
POINT
  8
DEFPOINTS
  6
BYBLOCK
 62
     0
 10
286.656
 20
36.580141
 30
0.0
  0
POINT
  8
DEFPOINTS
  6
BYBLOCK
 62
     0
 10
287.874132
 20
35.730612
 30
0.0
  0
POINT
  8
DEFPOINTS
  6
BYBLOCK
 62
     0
 10
288.604503
 20
35.730612
 30
0.0
  0
LINE
  8
0
 10
287.874132
 20
33.980612
 30
0.0
 11
287.874132
 21
35.730612
 31
0.0
  0
ARC
  8
0
 10
287.305464
 20
35.730612
 30
0.0
 40
0.568669
 50
0.0
 51
32.354385
  0
ARC
  8
0
 10
286.955369
 20
35.508826
 30
0.0
 40
0.983103
 50
32.354385
 51
56.821488
  0
ARC
  8
0
 10
286.725083
 20
35.156624
 30
0.0
 40
1.403909
 50
56.821488
 51
74.846006
  0
ARC
  8
0
 10
286.574132
 20
34.599265
 30
0.0
 40
1.981347
 50
74.846006
 51
90.0
  0
ARC
  8
0
 10
286.574132
 20
34.599265
 30
0.0
 40
1.981347
 50
90.0
 51
105.153994
  0
ARC
  8
0
 10
286.423182
 20
35.156624
 30
0.0
 40
1.403909
 50
105.153994
 51
123.178512
  0
ARC
  8
0
 10
286.192896
 20
35.508826
 30
0.0
 40
0.983103
 50
123.178512
 51
147.645615
  0
ARC
  8
0
 10
285.842801
 20
35.730612
 30
0.0
 40
0.568669
 50
147.645615
 51
180.0
  0
LINE
  8
0
 10
285.274132
 20
35.730612
 30
0.0
 11
285.274132
 21
33.980612
 31
0.0
  0
LINE
  8
0
 10
285.274132
 20
33.980612
 30
0.0
 11
286.224132
 21
33.980612
 31
0.0
  0
ARC
  8
0
 10
286.935964
 20
33.980612
 30
0.0
 40
0.711831
 50
180.0
 51
196.16949
  0
ARC
  8
0
 10
286.758011
 20
33.929015
 30
0.0
 40
0.526549
 50
196.16949
 51
214.99202
  0
ARC
  8
0
 10
286.645364
 20
33.850162
 30
0.0
 40
0.389046
 50
214.99202
 51
239.385769
  0
ARC
  8
0
 10
286.574132
 20
33.729784
 30
0.0
 40
0.249172
 50
239.385769
 51
270.0
  0
ARC
  8
0
 10
286.574132
 20
33.729784
 30
0.0
 40
0.249172
 50
270.0
 51
300.614231
  0
ARC
  8
0
 10
286.5029
 20
33.850162
 30
0.0
 40
0.389046
 50
300.614231
 51
325.00798
  0
ARC
  8
0
 10
286.390254
 20
33.929015
 30
0.0
 40
0.526549
 50
325.00798
 51
343.83051
  0
ARC
  8
0
 10
286.212301
 20
33.980612
 30
0.0
 40
0.711831
 50
343.83051
 51
0.0
  0
LINE
  8
0
 10
286.924132
 20
33.980612
 30
0.0
 11
287.874132
 21
33.980612
 31
0.0
  0
ENDSEC
  0
EOF
