  0
SECTION
  2
HEADER
  9
$ACADVER
  1
AC1009
  9
$INSBASE
 10
0.0
 20
0.0
 30
0.0
  9
$EXTMIN
 10
281.396000
 20
29.897000
 30
-2147483.648000
  9
$EXTMAX
 10
291.896000
 20
44.747000
 30
0.000000
  9
$LIMMIN
 10
280.396000
 20
28.897000
  9
$LIMMAX
 10
292.896000
 20
43.747000
  9
$ORTHOMODE
 70
     0
  9
$REGENMODE
 70
     1
  9
$FILLMODE
 70
     1
  9
$QTEXTMODE
 70
     0
  9
$MIRRTEXT
 70
     1
  9
$DRAGMODE
 70
     2
  9
$LTSCALE
 40
1.0
  9
$OSMODE
 70
     0
  9
$ATTMODE
 70
     1
  9
$TEXTSIZE
 40
0.2
  9
$TRACEWID
 40
0.05
  9
$TEXTSTYLE
  7
STANDARD
  9
$CLAYER
  8
0
  9
$CELTYPE
  6
BYLAYER
  9
$CECOLOR
 62
   256
  9
$DIMSCALE
 40
1.0
  9
$DIMASZ
 40
0.18
  9
$DIMEXO
 40
0.0625
  9
$DIMDLI
 40
0.38
  9
$DIMRND
 40
0.0
  9
$DIMDLE
 40
0.0
  9
$DIMEXE
 40
0.18
  9
$DIMTP
 40
0.0
  9
$DIMTM
 40
0.0
  9
$DIMTXT
 40
0.18
  9
$DIMCEN
 40
0.09
  9
$DIMTSZ
 40
0.0
  9
$DIMTOL
 70
     0
  9
$DIMLIM
 70
     0
  9
$DIMTIH
 70
     1
  9
$DIMTOH
 70
     1
  9
$DIMSE1
 70
     0
  9
$DIMSE2
 70
     0
  9
$DIMTAD
 70
     0
  9
$DIMZIN
 70
     0
  9
$DIMBLK
  1

  9
$DIMASO
 70
     1
  9
$DIMSHO
 70
     1
  9
$DIMPOST
  1

  9
$DIMAPOST
  1

  9
$DIMALT
 70
     0
  9
$DIMALTD
 70
     2
  9
$DIMALTF
 40
25.4
  9
$DIMLFAC
 40
1.0
  9
$DIMTOFL
 70
     0
  9
$DIMTVP
 40
0.0
  9
$DIMTIX
 70
     0
  9
$DIMSOXD
 70
     0
  9
$DIMSAH
 70
     0
  9
$DIMBLK1
  1

  9
$DIMBLK2
  1

  9
$DIMSTYLE
  2
*UNNAMED
  9
$DIMCLRD
 70
     0
  9
$DIMCLRE
 70
     0
  9
$DIMCLRT
 70
     0
  9
$DIMTFAC
 40
1.0
  9
$DIMGAP
 40
0.09
  9
$LUNITS
 70
     2
  9
$LUPREC
 70
     4
  9
$AXISMODE
 70
     0
  9
$AXISUNIT
 10
0.0
 20
0.0
  9
$SKETCHINC
 40
0.1
  9
$FILLETRAD
 40
0.0
  9
$AUNITS
 70
     0
  9
$AUPREC
 70
     0
  9
$MENU
  1
acad
  9
$ELEVATION
 40
0.0
  9
$PELEVATION
 40
0.0
  9
$THICKNESS
 40
0.0
  9
$LIMCHECK
 70
     0
  9
$BLIPMODE
 70
     1
  9
$CHAMFERA
 40
0.0
  9
$CHAMFERB
 40
0.0
  9
$SKPOLY
 70
     0
  9
$TDCREATE
 40
2448315.373408102
  9
$TDUPDATE
 40
2448315.373408102
  9
$TDINDWG
 40
0.0000000000
  9
$TDUSRTIMER
 40
0.0000000000
  9
$USRTIMER
 70
     1
  9
$ANGBASE
 50
0.0
  9
$ANGDIR
 70
     0
  9
$PDMODE
 70
     0
  9
$PDSIZE
 40
0.0
  9
$PLINEWID
 40
0.0
  9
$COORDS
 70
     0
  9
$SPLFRAME
 70
     0
  9
$SPLINETYPE
 70
     6
  9
$SPLINESEGS
 70
     8
  9
$ATTDIA
 70
     0
  9
$ATTREQ
 70
     1
  9
$HANDLING
 70
     0
  9
$HANDSEED
  5
0
  9
$SURFTAB1
 70
     6
  9
$SURFTAB2
 70
     6
  9
$SURFTYPE
 70
     6
  9
$SURFU
 70
     6
  9
$SURFV
 70
     6
  9
$UCSNAME
  2

  9
$UCSORG
 10
0.0
 20
0.0
 30
0.0
  9
$UCSXDIR
 10
1.0
 20
0.0
 30
0.0
  9
$UCSYDIR
 10
0.0
 20
1.0
 30
0.0
  9
$PUCSNAME
  2

  9
$PUCSORG
 10
0.0
 20
0.0
 30
0.0
  9
$PUCSXDIR
 10
1.0
 20
0.0
 30
0.0
  9
$PUCSYDIR
 10
0.0
 20
1.0
 30
0.0
  9
$USERI1
 70
     0
  9
$USERI2
 70
     0
  9
$USERI3
 70
     0
  9
$USERI4
 70
     0
  9
$USERI5
 70
     0
  9
$USERR1
 40
0.0
  9
$USERR2
 40
0.0
  9
$USERR3
 40
0.0
  9
$USERR4
 40
0.0
  9
$USERR5
 40
0.0
  9
$WORLDVIEW
 70
     1
  9
$SHADEDGE
 70
     3
  9
$SHADEDIF
 70
    70
  9
$TILEMODE
 70
     1
  9
$MAXACTVP
 70
    16
  9
$PINSBASE
 10
0.0
 20
0.0
 30
0.0
  9
$PLIMCHECK
 70
     0
  9
$PEXTMIN
 10
1.000000E+20
 20
1.000000E+20
 30
1.000000E+20
  9
$PEXTMAX
 10
-1.000000E+20
 20
-1.000000E+20
 30
-1.000000E+20
  9
$PLIMMIN
 10
0.0
 20
0.0
  9
$PLIMMAX
 10
12.0
 20
9.0
  9
$UNITMODE
 70
     0
  9
$VISRETAIN
 70
     0
  0
ENDSEC
  0
SECTION
  2
TABLES
  0
TABLE
  2
LTYPE
 70
    1
  0
LTYPE
  2
CONTINUOUS
 70
    64
3
Solid line
 72
    65
 73
0
 40
0.000000
  0
ENDTAB
  0
TABLE
  2
LAYER
 70
    8
  0
LAYER
  2
0
 70
    64
 62
7
  6
CONTINUOUS
  0
LAYER
  2
1
 70
    64
 62
7
  6
CONTINUOUS
  0
LAYER
  2
7
 70
    64
 62
7
  6
CONTINUOUS
  0
LAYER
  2
8
 70
    64
 62
7
  6
CONTINUOUS
  0
LAYER
  2
9
 70
    64
 62
7
  6
CONTINUOUS
  0
LAYER
  2
22
 70
    64
 62
7
  6
CONTINUOUS
  0
LAYER
  2
25
 70
    64
 62
7
  6
CONTINUOUS
  0
LAYER
  2
0
 70
    64
 62
7
  6
CONTINUOUS
  0
ENDTAB
  0
TABLE
  2
STYLE
 70
    1
  0
STYLE
  2
ROMANC
70
     0
 40
0.0
 41
1.0
 50
0.0
 71
     0
 42
0.2
  3
ROMANC
  4

  0
ENDTAB
  0
ENDSEC
  0
SECTION
  2
BLOCKS
  0
ENDSEC
  0
SECTION
  2
ENTITIES
  0
TEXT
  8
0
  6
CONTINUOUS
 40
0.100000
 10
286.909000
 20
41.324000
  1
2
  7
ROMANC
  0
TEXT
  8
0
  6
CONTINUOUS
 40
0.300000
 10
283.926000
 20
41.768000
  1
ESCALA  1:50
  7
ROMANC
  0
POLYLINE
  8
0
  6
CONTINUOUS
 66
     1
 70
     1
  0
VERTEX
  8
0
  6
CONTINUOUS
 10
281.396000
 20
44.747000
  0
VERTEX
  8
0
  6
CONTINUOUS
 10
291.896000
 20
44.747000
  0
VERTEX
  8
0
  6
CONTINUOUS
 10
291.896000
 20
29.897000
  0
VERTEX
  8
0
  6
CONTINUOUS
 10
281.396000
 20
29.897000
  0
SEQEND
  8
0
  0
POLYLINE
  8
1
  6
CONTINUOUS
 66
     1
 70
     0
  0
VERTEX
  8
1
  6
CONTINUOUS
 10
287.693000
 20
34.608000
 42
0.033834
  0
VERTEX
  8
1
  6
CONTINUOUS
 10
287.680091
 20
34.797364
 42
0.033715
  0
VERTEX
  8
1
  6
CONTINUOUS
 10
287.641889
 20
34.983288
 42
0.033635
  0
VERTEX
  8
1
  6
CONTINUOUS
 10
287.578646
 20
35.163144
 42
0.033315
  0
VERTEX
  8
1
  6
CONTINUOUS
 10
287.492038
 20
35.333000
 42
0.033182
  0
VERTEX
  8
1
  6
CONTINUOUS
 10
287.382733
 20
35.490989
 42
0.032757
  0
VERTEX
  8
1
  6
CONTINUOUS
 10
287.253660
 20
35.633305
 42
0.032608
  0
VERTEX
  8
1
  6
CONTINUOUS
 10
287.105787
 20
35.758562
 42
0.032198
  0
VERTEX
  8
1
  6
CONTINUOUS
 10
286.943000
 20
35.863737
 42
0.032074
  0
VERTEX
  8
1
  6
CONTINUOUS
 10
286.766734
 20
35.947690
 42
0.031782
  0
VERTEX
  8
1
  6
CONTINUOUS
 10
286.581229
 20
36.008592
 42
0.031712
  0
VERTEX
  8
1
  6
CONTINUOUS
 10
286.388677
 20
36.045563
 42
0.031607
  0
VERTEX
  8
1
  6
CONTINUOUS
 10
286.193000
 20
36.058000
 42
0.031607
  0
VERTEX
  8
1
  6
CONTINUOUS
 10
285.997323
 20
36.045563
 42
0.031712
  0
VERTEX
  8
1
  6
CONTINUOUS
 10
285.804771
 20
36.008592
 42
0.031782
  0
VERTEX
  8
1
  6
CONTINUOUS
 10
285.619266
 20
35.947690
 42
0.032074
  0
VERTEX
  8
1
  6
CONTINUOUS
 10
285.443000
 20
35.863737
 42
0.032198
  0
VERTEX
  8
1
  6
CONTINUOUS
 10
285.280213
 20
35.758562
 42
0.032608
  0
VERTEX
  8
1
  6
CONTINUOUS
 10
285.132340
 20
35.633305
 42
0.032757
  0
VERTEX
  8
1
  6
CONTINUOUS
 10
285.003267
 20
35.490989
 42
0.033182
  0
VERTEX
  8
1
  6
CONTINUOUS
 10
284.893962
 20
35.333000
 42
0.033315
  0
VERTEX
  8
1
  6
CONTINUOUS
 10
284.807354
 20
35.163144
 42
0.033635
  0
VERTEX
  8
1
  6
CONTINUOUS
 10
284.744111
 20
34.983288
 42
0.033715
  0
VERTEX
  8
1
  6
CONTINUOUS
 10
284.705909
 20
34.797364
 42
0.033834
  0
VERTEX
  8
1
  6
CONTINUOUS
 10
284.693000
 20
34.608000
  0
SEQEND
  8
0
  0
LINE
  8
1
  6
CONTINUOUS
 10
284.693000
 20
34.608000
 11
284.693000
 21
33.608000
  0
TEXT
  8
0
  6
CONTINUOUS
 40
0.300000
 10
283.922000
 20
40.529000
  1
P = 98 dm
  7
ROMANC
  0
TEXT
  8
0
  6
CONTINUOUS
 40
0.300000
 10
283.945000
 20
41.099000
  1
S = 646 dm
  7
ROMANC
  0
TEXT
  8
0
  6
CONTINUOUS
 40
0.300000
 10
283.926000
 20
42.381000
  1
TIPUS   NT646
  7
ROMANC
  0
LINE
  8
1
  6
CONTINUOUS
 10
284.693000
 20
33.608000
 11
285.993000
 21
33.608000
  0
TEXT
  8
1
  6
CONTINUOUS
 40
0.075000
 10
285.233000
 20
33.250000
  1
1.30
  7
ROMANC
  0
LINE
  8
1
  6
CONTINUOUS
 10
285.195000
 20
33.288000
 11
284.693000
 21
33.288000
  0
LINE
  8
1
  6
CONTINUOUS
 10
285.490000
 20
33.288000
 11
285.993000
 21
33.288000
  0
LINE
  8
1
  6
CONTINUOUS
 10
284.656000
 20
33.269000
 11
284.730000
 21
33.307000
  0
LINE
  8
1
  6
CONTINUOUS
 10
286.030000
 20
33.307000
 11
285.956000
 21
33.269000
  0
LINE
  8
1
  6
CONTINUOUS
 10
284.693000
 20
33.570000
 11
284.693000
 21
33.250000
  0
LINE
  8
1
  6
CONTINUOUS
 10
285.993000
 20
33.570000
 11
285.993000
 21
33.250000
  0
LINE
  8
1
  6
CONTINUOUS
 10
286.393000
 20
33.608000
 11
287.693000
 21
33.608000
  0
TEXT
  8
1
  6
CONTINUOUS
 40
0.075000
 10
286.933000
 20
33.250000
  1
1.30
  7
ROMANC
  0
LINE
  8
1
  6
CONTINUOUS
 10
286.895000
 20
33.288000
 11
286.393000
 21
33.288000
  0
LINE
  8
1
  6
CONTINUOUS
 10
287.190000
 20
33.288000
 11
287.693000
 21
33.288000
  0
LINE
  8
1
  6
CONTINUOUS
 10
286.356000
 20
33.269000
 11
286.430000
 21
33.307000
  0
LINE
  8
1
  6
CONTINUOUS
 10
287.730000
 20
33.307000
 11
287.656000
 21
33.269000
  0
LINE
  8
1
  6
CONTINUOUS
 10
286.393000
 20
33.570000
 11
286.393000
 21
33.250000
  0
LINE
  8
1
  6
CONTINUOUS
 10
287.693000
 20
33.570000
 11
287.693000
 21
33.250000
  0
ARC
  8
1
  6
CONTINUOUS
 10
286.193000
 20
33.666333
 40
0.208333
 50
196.260206
 51
343.739797
  0
TEXT
  8
1
  6
CONTINUOUS
 40
0.075000
 10
286.071000
 20
33.104000
  1
0.40
  7
ROMANC
  0
LINE
  8
1
  6
CONTINUOUS
 10
285.843000
 20
33.141000
 11
285.993000
 21
33.141000
  0
LINE
  8
1
  6
CONTINUOUS
 10
286.543000
 20
33.141000
 11
286.393000
 21
33.141000
  0
LINE
  8
1
  6
CONTINUOUS
 10
286.030000
 20
33.160000
 11
285.956000
 21
33.122000
  0
LINE
  8
1
  6
CONTINUOUS
 10
286.356000
 20
33.122000
 11
286.430000
 21
33.160000
  0
LINE
  8
1
  6
CONTINUOUS
 10
285.993000
 20
33.570000
 11
285.993000
 21
33.103000
  0
LINE
  8
1
  6
CONTINUOUS
 10
286.393000
 20
33.570000
 11
286.393000
 21
33.103000
  0
TEXT
  8
1
  6
CONTINUOUS
 40
0.075000
 10
286.074000
 20
32.912000
  1
3.00
  7
ROMANC
  0
LINE
  8
1
  6
CONTINUOUS
 10
286.036000
 20
32.949000
 11
284.693000
 21
32.949000
  0
LINE
  8
1
  6
CONTINUOUS
 10
286.348000
 20
32.949000
 11
287.693000
 21
32.949000
  0
LINE
  8
1
  6
CONTINUOUS
 10
284.656000
 20
32.930000
 11
284.730000
 21
32.968000
  0
LINE
  8
1
  6
CONTINUOUS
 10
287.730000
 20
32.968000
 11
287.656000
 21
32.930000
  0
LINE
  8
1
  6
CONTINUOUS
 10
284.693000
 20
33.570000
 11
284.693000
 21
32.911000
  0
LINE
  8
1
  6
CONTINUOUS
 10
287.693000
 20
33.570000
 11
287.693000
 21
32.911000
  0
LINE
  8
1
  6
CONTINUOUS
 10
287.693000
 20
33.608000
 11
287.693000
 21
34.608000
  0
TEXT
  8
1
  6
CONTINUOUS
 40
0.075000
 10
287.980000
 20
33.052000
  1
0.15
 50
90.000000
  7
ROMANC
  0
LINE
  8
1
  6
CONTINUOUS
 10
287.942000
 20
33.385000
 11
287.942000
 21
33.458000
  0
LINE
  8
1
  6
CONTINUOUS
 10
287.942000
 20
33.758000
 11
287.942000
 21
33.608000
  0
LINE
  8
1
  6
CONTINUOUS
 10
287.923000
 20
33.496000
 11
287.961000
 21
33.420000
  0
LINE
  8
1
  6
CONTINUOUS
 10
287.961000
 20
33.570000
 11
287.923000
 21
33.646000
  0
LINE
  8
1
  6
CONTINUOUS
 10
286.231000
 20
33.458000
 11
287.980000
 21
33.458000
  0
LINE
  8
1
  6
CONTINUOUS
 10
287.731000
 20
33.608000
 11
287.980000
 21
33.608000
  0
TEXT
  8
1
  6
CONTINUOUS
 40
0.075000
 10
288.184000
 20
33.998000
  1
1.00
 50
90.000000
  7
ROMANC
  0
LINE
  8
1
  6
CONTINUOUS
 10
288.146000
 20
33.960000
 11
288.146000
 21
33.608000
  0
LINE
  8
1
  6
CONTINUOUS
 10
288.146000
 20
34.255000
 11
288.146000
 21
34.608000
  0
LINE
  8
1
  6
CONTINUOUS
 10
288.165000
 20
33.570000
 11
288.127000
 21
33.646000
  0
LINE
  8
1
  6
CONTINUOUS
 10
288.127000
 20
34.646000
 11
288.165000
 21
34.570000
  0
LINE
  8
1
  6
CONTINUOUS
 10
287.731000
 20
33.608000
 11
288.184000
 21
33.608000
  0
LINE
  8
1
  6
CONTINUOUS
 10
287.731000
 20
34.608000
 11
288.184000
 21
34.608000
  0
TEXT
  8
1
  6
CONTINUOUS
 40
0.075000
 10
288.184000
 20
35.220000
  1
1.45
 50
90.000000
  7
ROMANC
  0
LINE
  8
1
  6
CONTINUOUS
 10
288.146000
 20
35.182000
 11
288.146000
 21
34.608000
  0
LINE
  8
1
  6
CONTINUOUS
 10
288.146000
 20
35.484000
 11
288.146000
 21
36.058000
  0
LINE
  8
1
  6
CONTINUOUS
 10
288.165000
 20
34.570000
 11
288.127000
 21
34.646000
  0
LINE
  8
1
  6
CONTINUOUS
 10
288.127000
 20
36.096000
 11
288.165000
 21
36.020000
  0
LINE
  8
1
  6
CONTINUOUS
 10
286.231000
 20
36.058000
 11
288.184000
 21
36.058000
  0
TEXT
  8
1
  6
CONTINUOUS
 40
0.075000
 10
288.420000
 20
34.639000
  1
2.60
 50
90.000000
  7
ROMANC
  0
LINE
  8
1
  6
CONTINUOUS
 10
288.382000
 20
34.601000
 11
288.382000
 21
33.458000
  0
LINE
  8
1
  6
CONTINUOUS
 10
288.382000
 20
34.913000
 11
288.382000
 21
36.058000
  0
LINE
  8
1
  6
CONTINUOUS
 10
288.401000
 20
33.420000
 11
288.363000
 21
33.496000
  0
LINE
  8
1
  6
CONTINUOUS
 10
288.363000
 20
36.096000
 11
288.401000
 21
36.020000
  0
LINE
  8
1
  6
CONTINUOUS
 10
286.231000
 20
33.458000
 11
288.420000
 21
33.458000
  0
LINE
  8
1
  6
CONTINUOUS
 10
286.231000
 20
36.058000
 11
288.420000
 21
36.058000
  0
POLYLINE
  8
1
  6
CONTINUOUS
 66
     1
 70
     0
  0
VERTEX
  8
1
  6
CONTINUOUS
 10
287.703000
 20
34.608000
 42
0.033826
  0
VERTEX
  8
1
  6
CONTINUOUS
 10
287.690005
 20
34.798669
 42
0.033708
  0
VERTEX
  8
1
  6
CONTINUOUS
 10
287.651548
 20
34.985876
 42
0.033629
  0
VERTEX
  8
1
  6
CONTINUOUS
 10
287.587884
 20
35.166971
 42
0.033311
  0
VERTEX
  8
1
  6
CONTINUOUS
 10
287.500698
 20
35.338000
 42
0.033178
  0
VERTEX
  8
1
  6
CONTINUOUS
 10
287.390666
 20
35.497076
 42
0.032757
  0
VERTEX
  8
1
  6
CONTINUOUS
 10
287.260731
 20
35.640376
 42
0.032609
  0
VERTEX
  8
1
  6
CONTINUOUS
 10
287.111874
 20
35.766495
 42
0.032201
  0
VERTEX
  8
1
  6
CONTINUOUS
 10
286.948000
 20
35.872397
 42
0.032078
  0
VERTEX
  8
1
  6
CONTINUOUS
 10
286.770561
 20
35.956928
 42
0.031788
  0
VERTEX
  8
1
  6
CONTINUOUS
 10
286.583817
 20
36.018252
 42
0.031719
  0
VERTEX
  8
1
  6
CONTINUOUS
 10
286.389982
 20
36.055477
 42
0.031615
  0
VERTEX
  8
1
  6
CONTINUOUS
 10
286.193000
 20
36.068000
 42
0.031615
  0
VERTEX
  8
1
  6
CONTINUOUS
 10
285.996018
 20
36.055477
 42
0.031719
  0
VERTEX
  8
1
  6
CONTINUOUS
 10
285.802183
 20
36.018252
 42
0.031788
  0
VERTEX
  8
1
  6
CONTINUOUS
 10
285.615439
 20
35.956928
 42
0.032078
  0
VERTEX
  8
1
  6
CONTINUOUS
 10
285.438000
 20
35.872397
 42
0.032201
  0
VERTEX
  8
1
  6
CONTINUOUS
 10
285.274126
 20
35.766495
 42
0.032609
  0
VERTEX
  8
1
  6
CONTINUOUS
 10
285.125269
 20
35.640376
 42
0.032757
  0
VERTEX
  8
1
  6
CONTINUOUS
 10
284.995334
 20
35.497076
 42
0.033178
  0
VERTEX
  8
1
  6
CONTINUOUS
 10
284.885302
 20
35.338000
 42
0.033311
  0
VERTEX
  8
1
  6
CONTINUOUS
 10
284.798116
 20
35.166971
 42
0.033629
  0
VERTEX
  8
1
  6
CONTINUOUS
 10
284.734452
 20
34.985876
 42
0.033708
  0
VERTEX
  8
1
  6
CONTINUOUS
 10
284.695995
 20
34.798669
 42
0.033826
  0
VERTEX
  8
1
  6
CONTINUOUS
 10
284.683000
 20
34.608000
  0
SEQEND
  8
0
  0
POLYLINE
  8
1
  6
CONTINUOUS
 66
     1
 70
     0
  0
VERTEX
  8
1
  6
CONTINUOUS
 10
287.713000
 20
34.608000
 42
0.033819
  0
VERTEX
  8
1
  6
CONTINUOUS
 10
287.699919
 20
34.799975
 42
0.033701
  0
VERTEX
  8
1
  6
CONTINUOUS
 10
287.661207
 20
34.988464
 42
0.033623
  0
VERTEX
  8
1
  6
CONTINUOUS
 10
287.597123
 20
35.170797
 42
0.033307
  0
VERTEX
  8
1
  6
CONTINUOUS
 10
287.509359
 20
35.343000
 42
0.033175
  0
VERTEX
  8
1
  6
CONTINUOUS
 10
287.398599
 20
35.503164
 42
0.032756
  0
VERTEX
  8
1
  6
CONTINUOUS
 10
287.267802
 20
35.647447
 42
0.032610
  0
VERTEX
  8
1
  6
CONTINUOUS
 10
287.117961
 20
35.774428
 42
0.032205
  0
VERTEX
  8
1
  6
CONTINUOUS
 10
286.953000
 20
35.881057
 42
0.032082
  0
VERTEX
  8
1
  6
CONTINUOUS
 10
286.774388
 20
35.966167
 42
0.031794
  0
VERTEX
  8
1
  6
CONTINUOUS
 10
286.586405
 20
36.027911
 42
0.031725
  0
VERTEX
  8
1
  6
CONTINUOUS
 10
286.391288
 20
36.065391
 42
0.031622
  0
VERTEX
  8
1
  6
CONTINUOUS
 10
286.193000
 20
36.078000
 42
0.031622
  0
VERTEX
  8
1
  6
CONTINUOUS
 10
285.994712
 20
36.065391
 42
0.031725
  0
VERTEX
  8
1
  6
CONTINUOUS
 10
285.799595
 20
36.027911
 42
0.031794
  0
VERTEX
  8
1
  6
CONTINUOUS
 10
285.611612
 20
35.966167
 42
0.032082
  0
VERTEX
  8
1
  6
CONTINUOUS
 10
285.433000
 20
35.881057
 42
0.032205
  0
VERTEX
  8
1
  6
CONTINUOUS
 10
285.268039
 20
35.774428
 42
0.032610
  0
VERTEX
  8
1
  6
CONTINUOUS
 10
285.118198
 20
35.647447
 42
0.032756
  0
VERTEX
  8
1
  6
CONTINUOUS
 10
284.987401
 20
35.503164
 42
0.033175
  0
VERTEX
  8
1
  6
CONTINUOUS
 10
284.876641
 20
35.343000
 42
0.033307
  0
VERTEX
  8
1
  6
CONTINUOUS
 10
284.788877
 20
35.170797
 42
0.033623
  0
VERTEX
  8
1
  6
CONTINUOUS
 10
284.724793
 20
34.988464
 42
0.033701
  0
VERTEX
  8
1
  6
CONTINUOUS
 10
284.686081
 20
34.799975
 42
0.033819
  0
VERTEX
  8
1
  6
CONTINUOUS
 10
284.673000
 20
34.608000
  0
SEQEND
  8
0
  0
LINE
  8
1
  6
CONTINUOUS
 10
284.683000
 20
34.608000
 11
284.683000
 21
33.598000
  0
LINE
  8
1
  6
CONTINUOUS
 10
284.673000
 20
34.608000
 11
284.673000
 21
33.588000
  0
LINE
  8
1
  6
CONTINUOUS
 10
284.683000
 20
33.598000
 11
285.986000
 21
33.598000
  0
LINE
  8
1
  6
CONTINUOUS
 10
284.673000
 20
33.588000
 11
285.979000
 21
33.588000
  0
ARC
  8
1
  6
CONTINUOUS
 10
286.193000
 20
33.666333
 40
0.218333
 50
198.238736
 51
341.761264
  0
ARC
  8
1
  6
CONTINUOUS
 10
286.193000
 20
33.666333
 40
0.228333
 50
200.063764
 51
339.936236
  0
LINE
  8
1
  6
CONTINUOUS
 10
286.400000
 20
33.598000
 11
287.703000
 21
33.598000
  0
LINE
  8
1
  6
CONTINUOUS
 10
286.407000
 20
33.588000
 11
287.713000
 21
33.588000
  0
LINE
  8
1
  6
CONTINUOUS
 10
287.703000
 20
33.598000
 11
287.703000
 21
34.608000
  0
LINE
  8
1
  6
CONTINUOUS
 10
287.713000
 20
33.588000
 11
287.713000
 21
34.608000
  0
ENDSEC
  0
EOF
