  0
SECTION
  2
HEADER
  9
$ACADVER
  1
AC1009
  9
$INSBASE
 10
157.784751
 20
249.695552
 30
0.0
  9
$EXTMIN
 10
157.784751
 20
249.695552
 30
0.0
  9
$EXTMAX
 10
168.284751
 20
264.545552
 30
0.0
  9
$LIMMIN
 10
0.0
 20
0.0
  9
$LIMMAX
 10
410.0
 20
287.0
  9
$ORTHOMODE
 70
     1
  9
$REGENMODE
 70
     1
  9
$FILLMODE
 70
     1
  9
$QTEXTMODE
 70
     0
  9
$MIRRTEXT
 70
     1
  9
$DRAGMODE
 70
     2
  9
$LTSCALE
 40
25.0
  9
$OSMODE
 70
    32
  9
$ATTMODE
 70
     1
  9
$TEXTSIZE
 40
0.1
  9
$TRACEWID
 40
0.3
  9
$TEXTSTYLE
  7
STANDARD
  9
$CLAYER
  8
0
  9
$CELTYPE
  6
BYLAYER
  9
$CECOLOR
 62
   256
  9
$DIMSCALE
 40
1.0
  9
$DIMASZ
 40
3.5
  9
$DIMEXO
 40
0.1
  9
$DIMDLI
 40
7.0
  9
$DIMRND
 40
0.0
  9
$DIMDLE
 40
0.0
  9
$DIMEXE
 40
1.8
  9
$DIMTP
 40
0.0
  9
$DIMTM
 40
0.0
  9
$DIMTXT
 40
3.5
  9
$DIMCEN
 40
1.5
  9
$DIMTSZ
 40
0.0
  9
$DIMTOL
 70
     0
  9
$DIMLIM
 70
     0
  9
$DIMTIH
 70
     0
  9
$DIMTOH
 70
     0
  9
$DIMSE1
 70
     0
  9
$DIMSE2
 70
     0
  9
$DIMTAD
 70
     0
  9
$DIMZIN
 70
     0
  9
$DIMBLK
  1

  9
$DIMASO
 70
     1
  9
$DIMSHO
 70
     0
  9
$DIMPOST
  1

  9
$DIMAPOST
  1

  9
$DIMALT
 70
     0
  9
$DIMALTD
 70
     2
  9
$DIMALTF
 40
25.4
  9
$DIMLFAC
 40
1.0
  9
$DIMTOFL
 70
     0
  9
$DIMTVP
 40
0.0
  9
$DIMTIX
 70
     0
  9
$DIMSOXD
 70
     0
  9
$DIMSAH
 70
     0
  9
$DIMBLK1
  1

  9
$DIMBLK2
  1

  9
$DIMSTYLE
  2
*UNNAMED
  9
$DIMCLRD
 70
     0
  9
$DIMCLRE
 70
     0
  9
$DIMCLRT
 70
     0
  9
$DIMTFAC
 40
1.0
  9
$DIMGAP
 40
0.09
  9
$LUNITS
 70
     2
  9
$LUPREC
 70
     2
  9
$SKETCHINC
 40
1.0
  9
$FILLETRAD
 40
0.0
  9
$AUNITS
 70
     0
  9
$AUPREC
 70
     0
  9
$MENU
  1
acad
  9
$ELEVATION
 40
0.0
  9
$PELEVATION
 40
0.0
  9
$THICKNESS
 40
0.0
  9
$LIMCHECK
 70
     0
  9
$BLIPMODE
 70
     0
  9
$CHAMFERA
 40
0.0
  9
$CHAMFERB
 40
0.0
  9
$SKPOLY
 70
     0
  9
$TDCREATE
 40
2449960.526007523
  9
$TDUPDATE
 40
2450722.567084722
  9
$TDINDWG
 40
0.0024417824
  9
$TDUSRTIMER
 40
0.0024417824
  9
$USRTIMER
 70
     1
  9
$ANGBASE
 50
0.0
  9
$ANGDIR
 70
     0
  9
$PDMODE
 70
     0
  9
$PDSIZE
 40
0.0
  9
$PLINEWID
 40
0.0
  9
$COORDS
 70
     2
  9
$SPLFRAME
 70
     0
  9
$SPLINETYPE
 70
     6
  9
$SPLINESEGS
 70
     8
  9
$ATTDIA
 70
     0
  9
$ATTREQ
 70
     1
  9
$HANDLING
 70
     0
  9
$HANDSEED
  5
0
  9
$SURFTAB1
 70
     6
  9
$SURFTAB2
 70
     6
  9
$SURFTYPE
 70
     6
  9
$SURFU
 70
     6
  9
$SURFV
 70
     6
  9
$UCSNAME
  2

  9
$UCSORG
 10
0.0
 20
0.0
 30
0.0
  9
$UCSXDIR
 10
1.0
 20
0.0
 30
0.0
  9
$UCSYDIR
 10
0.0
 20
1.0
 30
0.0
  9
$PUCSNAME
  2

  9
$PUCSORG
 10
0.0
 20
0.0
 30
0.0
  9
$PUCSXDIR
 10
1.0
 20
0.0
 30
0.0
  9
$PUCSYDIR
 10
0.0
 20
1.0
 30
0.0
  9
$USERI1
 70
     0
  9
$USERI2
 70
     0
  9
$USERI3
 70
     0
  9
$USERI4
 70
     0
  9
$USERI5
 70
     0
  9
$USERR1
 40
0.0
  9
$USERR2
 40
0.0
  9
$USERR3
 40
0.0
  9
$USERR4
 40
0.0
  9
$USERR5
 40
0.0
  9
$WORLDVIEW
 70
     1
  9
$SHADEDGE
 70
     3
  9
$SHADEDIF
 70
    70
  9
$TILEMODE
 70
     1
  9
$MAXACTVP
 70
    16
  9
$PINSBASE
 10
0.0
 20
0.0
 30
0.0
  9
$PLIMCHECK
 70
     0
  9
$PEXTMIN
 10
1.000000E+20
 20
1.000000E+20
 30
1.000000E+20
  9
$PEXTMAX
 10
-1.000000E+20
 20
-1.000000E+20
 30
-1.000000E+20
  9
$PLIMMIN
 10
0.0
 20
0.0
  9
$PLIMMAX
 10
12.0
 20
9.0
  9
$UNITMODE
 70
     0
  9
$VISRETAIN
 70
     0
  9
$PLINEGEN
 70
     0
  9
$PSLTSCALE
 70
     0
  9
$TREEDEPTH
 70
  3020
  9
$DWGCODEPAGE
  3
iso8859-1
  0
ENDSEC
  0
SECTION
  2
TABLES
  0
TABLE
  2
VPORT
 70
     1
  0
VPORT
  2
*ACTIVE
 70
     0
 10
0.0
 20
0.0
 11
1.0
 21
1.0
 12
169.746601
 22
257.120552
 13
0.0
 23
0.0
 14
1.0
 24
1.0
 15
10.0
 25
10.0
 16
0.0
 26
0.0
 36
1.0
 17
0.0
 27
0.0
 37
0.0
 40
14.85
 41
1.611024
 42
50.0
 43
0.0
 44
0.0
 50
0.0
 51
0.0
 71
     0
 72
   100
 73
     1
 74
     0
 75
     0
 76
     0
 77
     0
 78
     0
  0
ENDTAB
  0
TABLE
  2
LTYPE
 70
     1
  0
LTYPE
  2
CONTINUOUS
 70
    64
  3
Solid Line
 72
    65
 73
     0
 40
0.0
  0
ENDTAB
  0
TABLE
  2
LAYER
 70
     5
  0
LAYER
  2
0
 70
    64
 62
     7
  6
CONTINUOUS
  0
LAYER
  2
SECCIO
 70
    64
 62
     7
  6
CONTINUOUS
  0
LAYER
  2
MESURA
 70
    64
 62
     7
  6
CONTINUOUS
  0
LAYER
  2
TEXTEP
 70
    64
 62
     7
  6
CONTINUOUS
  0
LAYER
  2
TEXTEG
 70
    64
 62
     7
  6
CONTINUOUS
  0
ENDTAB
  0
TABLE
  2
STYLE
 70
     2
  0
STYLE
  2
STANDARD
 70
    64
 40
0.0
 41
1.0
 50
0.0
 71
     0
 42
0.1
  3
txt
  4

  0
STYLE
  2
ROMANC
 70
    64
 40
0.0
 41
1.0
 50
0.0
 71
     0
 42
0.1
  3
romanc
  4

  0
ENDTAB
  0
TABLE
  2
VIEW
 70
     0
  0
ENDTAB
  0
TABLE
  2
UCS
 70
     0
  0
ENDTAB
  0
TABLE
  2
APPID
 70
     1
  0
APPID
  2
ACAD
 70
    64
  0
ENDTAB
  0
TABLE
  2
DIMSTYLE
 70
     0
  0
ENDTAB
  0
ENDSEC
  0
SECTION
  2
BLOCKS
  0
ENDSEC
  0
SECTION
  2
ENTITIES
  0
LINE
  8
MESURA
 10
164.482078
 20
255.569126
 30
0.0
 11
164.482078
 21
255.169126
 31
0.0
  0
LINE
  8
SECCIO
 10
160.459654
 20
257.443866
 30
0.0
 11
160.459654
 21
255.10779
 31
0.0
  0
LINE
  8
MESURA
 10
163.977516
 20
255.569126
 30
0.0
 11
163.977516
 21
254.571179
 31
0.0
  0
LINE
  8
SECCIO
 10
160.90569
 20
254.669126
 30
0.0
 11
164.089791
 21
254.669126
 31
0.0
  0
LINE
  8
MESURA
 10
160.931153
 20
254.634098
 30
0.0
 11
161.014543
 21
254.694707
 31
0.0
  0
LINE
  8
MESURA
 10
160.41936
 20
255.134977
 30
0.0
 11
160.50275
 21
255.195587
 31
0.0
  0
LINE
  8
MESURA
 10
160.977516
 20
255.169126
 30
0.0
 11
159.854101
 21
255.169126
 31
0.0
  0
TEXT
  8
TEXTEP
 10
161.779793
 20
254.496729
 30
0.0
 40
0.1
  1
2.1
  0
LINE
  8
MESURA
 10
160.977516
 20
255.169126
 30
0.0
 11
160.977516
 21
254.587978
 31
0.0
  0
LINE
  8
MESURA
 10
163.927692
 20
254.635682
 30
0.0
 11
164.011082
 21
254.696292
 31
0.0
  0
LINE
  8
MESURA
 10
163.0391
 20
254.635682
 30
0.0
 11
163.12249
 21
254.696292
 31
0.0
  0
LINE
  8
MESURA
 10
164.482078
 20
255.169126
 30
0.0
 11
164.482078
 21
255.083531
 31
0.0
  0
LINE
  8
MESURA
 10
163.077516
 20
255.169126
 30
0.0
 11
164.601256
 21
255.169126
 31
0.0
  0
TEXT
  8
TEXTEP
 10
164.57225
 20
255.344164
 30
0.0
 40
0.1
  1
0.4
  0
LINE
  8
MESURA
 10
164.441835
 20
255.141464
 30
0.0
 11
164.525225
 21
255.202074
 31
0.0
  0
TEXT
  8
TEXTEP
 10
163.613664
 20
254.496729
 30
0.0
 40
0.1
  1
0.9
  0
LINE
  8
MESURA
 10
163.077516
 20
255.169126
 30
0.0
 11
163.077516
 21
254.570879
 31
0.0
  0
TEXT
  8
0
 10
159.764401
 20
260.692451
 30
0.0
 40
0.3
  1
P = 99.8 dm
  7
ROMANC
  0
TEXT
  8
0
 10
159.767229
 20
261.365949
 30
0.0
 40
0.3
  1
S = 609  dm
  7
ROMANC
  0
LINE
  8
0
 10
157.784751
 20
264.545552
 30
0.0
 11
168.284751
 21
264.545552
 31
0.0
  0
LINE
  8
MESURA
 10
160.959654
 20
257.069126
 30
0.0
 11
160.376037
 21
257.069126
 31
0.0
  0
LINE
  8
MESURA
 10
161.459654
 20
257.369126
 30
0.0
 11
159.854101
 21
257.369126
 31
0.0
  0
LINE
  8
MESURA
 10
160.502397
 20
257.038318
 30
0.0
 11
160.419007
 21
257.098928
 31
0.0
  0
LINE
  8
MESURA
 10
160.500408
 20
257.337368
 30
0.0
 11
160.417017
 21
257.397978
 31
0.0
  0
LINE
  8
MESURA
 10
161.003196
 20
257.536431
 30
0.0
 11
160.919806
 21
257.59704
 31
0.0
  0
LINE
  8
MESURA
 10
160.959654
 20
257.069126
 30
0.0
 11
160.959654
 21
257.653438
 31
0.0
  0
LINE
  8
SECCIO
 10
161.55697
 20
257.571307
 30
0.0
 11
160.883238
 21
257.571307
 31
0.0
  0
LINE
  8
MESURA
 10
161.504937
 20
257.539974
 30
0.0
 11
161.421547
 21
257.600584
 31
0.0
  0
LINE
  8
MESURA
 10
161.459654
 20
257.369126
 30
0.0
 11
161.459654
 21
257.653438
 31
0.0
  0
TEXT
  8
TEXTEP
 10
161.136237
 20
257.671454
 30
0.0
 40
0.1
  1
0.5
  0
TEXT
  8
TEXTEP
 10
160.145437
 20
257.154074
 30
0.0
 40
0.1
  1
0.3
  0
TEXT
  8
TEXTEP
 10
160.181142
 20
255.893013
 30
0.0
 40
0.1
  1
1.9
  0
LINE
  8
MESURA
 10
163.977516
 20
255.569126
 30
0.0
 11
164.561489
 21
255.569126
 31
0.0
  0
LINE
  8
MESURA
 10
164.441835
 20
255.538115
 30
0.0
 11
164.525225
 21
255.598725
 31
0.0
  0
LINE
  8
MESURA
 10
164.482078
 20
255.674527
 30
0.0
 11
164.482078
 21
255.569126
 31
0.0
  0
TEXT
  8
0
 10
163.275061
 20
261.671865
 30
0.0
 40
0.1
  1
2
  7
ROMANC
  0
LINE
  8
0
 10
157.784751
 20
264.545552
 30
0.0
 11
157.784751
 21
249.695552
 31
0.0
  0
LINE
  8
0
 10
157.784751
 20
249.695552
 30
0.0
 11
168.284751
 21
249.695552
 31
0.0
  0
LINE
  8
0
 10
168.284751
 20
264.545552
 30
0.0
 11
168.284751
 21
249.695552
 31
0.0
  0
LINE
  8
0
 10
159.854101
 20
257.369126
 30
0.0
 11
159.854101
 21
255.169126
 31
0.0
  0
LINE
  8
MESURA
 10
159.894854
 20
257.339506
 30
0.0
 11
159.811464
 21
257.400116
 31
0.0
  0
LINE
  8
MESURA
 10
159.894854
 20
255.139506
 30
0.0
 11
159.811464
 21
255.200116
 31
0.0
  0
TEXT
  8
TEXTEP
 10
159.594422
 20
256.310579
 30
0.0
 40
0.1
  1
2.2
  0
LINE
  8
SECCIO
 10
163.987516
 20
255.559126
 30
0.0
 11
163.087516
 21
255.559126
 31
0.0
  0
LINE
  8
SECCIO
 10
163.087516
 20
255.559126
 30
0.0
 11
163.087516
 21
255.159126
 31
0.0
  0
LINE
  8
SECCIO
 10
163.087516
 20
255.159126
 30
0.0
 11
160.967516
 21
255.159126
 31
0.0
  0
LINE
  8
SECCIO
 10
160.967516
 20
255.159126
 30
0.0
 11
160.967516
 21
257.074788
 31
0.0
  0
LINE
  8
SECCIO
 10
160.967516
 20
257.074788
 30
0.0
 11
161.474747
 21
257.379126
 31
0.0
  0
LINE
  8
SECCIO
 10
161.474747
 20
257.379126
 30
0.0
 11
163.480133
 21
257.379126
 31
0.0
  0
LINE
  8
SECCIO
 10
163.480133
 20
257.379126
 30
0.0
 11
163.717973
 21
257.245479
 31
0.0
  0
LINE
  8
SECCIO
 10
163.717973
 20
257.245479
 30
0.0
 11
163.987516
 21
257.074627
 31
0.0
  0
LINE
  8
SECCIO
 10
163.987516
 20
257.074627
 30
0.0
 11
163.987516
 21
255.559126
 31
0.0
  0
LINE
  8
SECCIO
 10
163.967516
 20
255.579126
 30
0.0
 11
163.067516
 21
255.579126
 31
0.0
  0
LINE
  8
SECCIO
 10
163.067516
 20
255.579126
 30
0.0
 11
163.067516
 21
255.179126
 31
0.0
  0
LINE
  8
SECCIO
 10
163.067516
 20
255.179126
 30
0.0
 11
160.987516
 21
255.179126
 31
0.0
  0
LINE
  8
SECCIO
 10
160.987516
 20
255.179126
 30
0.0
 11
160.987516
 21
257.063464
 31
0.0
  0
LINE
  8
SECCIO
 10
160.987516
 20
257.063464
 30
0.0
 11
161.480286
 21
257.359126
 31
0.0
  0
LINE
  8
SECCIO
 10
161.480286
 20
257.359126
 30
0.0
 11
163.4749
 21
257.359126
 31
0.0
  0
LINE
  8
SECCIO
 10
163.4749
 20
257.359126
 30
0.0
 11
163.70749
 21
257.228445
 31
0.0
  0
LINE
  8
SECCIO
 10
163.70749
 20
257.228445
 30
0.0
 11
163.967516
 21
257.063625
 31
0.0
  0
LINE
  8
SECCIO
 10
163.967516
 20
257.063625
 30
0.0
 11
163.967516
 21
255.579126
 31
0.0
  0
LINE
  8
SECCIO
 10
163.977516
 20
255.569126
 30
0.0
 11
163.077516
 21
255.569126
 31
0.0
  0
LINE
  8
SECCIO
 10
163.077516
 20
255.569126
 30
0.0
 11
163.077516
 21
255.169126
 31
0.0
  0
LINE
  8
SECCIO
 10
163.077516
 20
255.169126
 30
0.0
 11
160.977516
 21
255.169126
 31
0.0
  0
LINE
  8
SECCIO
 10
160.977516
 20
255.169126
 30
0.0
 11
160.977516
 21
257.069126
 31
0.0
  0
LINE
  8
SECCIO
 10
160.977516
 20
257.069126
 30
0.0
 11
161.477516
 21
257.369126
 31
0.0
  0
LINE
  8
SECCIO
 10
161.477516
 20
257.369126
 30
0.0
 11
163.477516
 21
257.369126
 31
0.0
  0
LINE
  8
SECCIO
 10
163.477516
 20
257.369126
 30
0.0
 11
163.712619
 21
257.237033
 31
0.0
  0
LINE
  8
SECCIO
 10
163.712619
 20
257.237033
 30
0.0
 11
163.977516
 21
257.069126
 31
0.0
  0
LINE
  8
SECCIO
 10
163.977516
 20
257.069126
 30
0.0
 11
163.977516
 21
255.561037
 31
0.0
  0
LINE
  8
SECCIO
 10
163.977516
 20
255.561037
 30
0.0
 11
163.977516
 21
255.569126
 31
0.0
  0
TEXT
  8
0
 10
159.767229
 20
262.743543
 30
0.0
 40
0.3
  1
TIPUS    NT609B
  7
ROMANC
  0
TEXT
  8
0
 10
159.764401
 20
262.070045
 30
0.0
 40
0.3
  1
ESCALA    1:50
  7
ROMANC
  0
ENDSEC
  0
EOF
