  0
SECTION
  2
HEADER
  9
$ACADVER
  1
AC1009
  9
$INSBASE
 10
105.663143
 20
-21.044592
 30
0.0
  9
$EXTMIN
 10
105.663143
 20
-21.044592
 30
0.0
  9
$EXTMAX
 10
116.163143
 20
-6.194592
 30
0.0
  9
$LIMMIN
 10
0.0
 20
0.0
  9
$LIMMAX
 10
410.0
 20
287.0
  9
$ORTHOMODE
 70
     1
  9
$REGENMODE
 70
     1
  9
$FILLMODE
 70
     1
  9
$QTEXTMODE
 70
     0
  9
$MIRRTEXT
 70
     1
  9
$DRAGMODE
 70
     2
  9
$LTSCALE
 40
25.0
  9
$OSMODE
 70
    32
  9
$ATTMODE
 70
     1
  9
$TEXTSIZE
 40
0.1
  9
$TRACEWID
 40
1.0
  9
$TEXTSTYLE
  7
ROMANC
  9
$CLAYER
  8
0
  9
$CELTYPE
  6
BYLAYER
  9
$CECOLOR
 62
   256
  9
$DIMSCALE
 40
0.0
  9
$DIMASZ
 40
0.0
  9
$DIMEXO
 40
0.1
  9
$DIMDLI
 40
7.0
  9
$DIMRND
 40
0.0
  9
$DIMDLE
 40
0.0
  9
$DIMEXE
 40
1.8
  9
$DIMTP
 40
0.0
  9
$DIMTM
 40
0.0
  9
$DIMTXT
 40
0.03
  9
$DIMCEN
 40
1.5
  9
$DIMTSZ
 40
1.0
  9
$DIMTOL
 70
     0
  9
$DIMLIM
 70
     0
  9
$DIMTIH
 70
     0
  9
$DIMTOH
 70
     0
  9
$DIMSE1
 70
     0
  9
$DIMSE2
 70
     0
  9
$DIMTAD
 70
     0
  9
$DIMZIN
 70
     0
  9
$DIMBLK
  1

  9
$DIMASO
 70
     1
  9
$DIMSHO
 70
     0
  9
$DIMPOST
  1

  9
$DIMAPOST
  1

  9
$DIMALT
 70
     0
  9
$DIMALTD
 70
     2
  9
$DIMALTF
 40
25.4
  9
$DIMLFAC
 40
1.0
  9
$DIMTOFL
 70
     1
  9
$DIMTVP
 40
0.0
  9
$DIMTIX
 70
     1
  9
$DIMSOXD
 70
     0
  9
$DIMSAH
 70
     0
  9
$DIMBLK1
  1

  9
$DIMBLK2
  1

  9
$DIMSTYLE
  2
*UNNAMED
  9
$DIMCLRD
 70
     0
  9
$DIMCLRE
 70
     0
  9
$DIMCLRT
 70
     0
  9
$DIMTFAC
 40
116.666667
  9
$DIMGAP
 40
0.09
  9
$LUNITS
 70
     2
  9
$LUPREC
 70
     2
  9
$SKETCHINC
 40
1.0
  9
$FILLETRAD
 40
0.0
  9
$AUNITS
 70
     0
  9
$AUPREC
 70
     0
  9
$MENU
  1
acad
  9
$ELEVATION
 40
0.0
  9
$PELEVATION
 40
0.0
  9
$THICKNESS
 40
0.0
  9
$LIMCHECK
 70
     0
  9
$BLIPMODE
 70
     0
  9
$CHAMFERA
 40
0.0
  9
$CHAMFERB
 40
0.0
  9
$SKPOLY
 70
     0
  9
$TDCREATE
 40
2449965.397909722
  9
$TDUPDATE
 40
2450730.683343634
  9
$TDINDWG
 40
0.0099667824
  9
$TDUSRTIMER
 40
0.0099667824
  9
$USRTIMER
 70
     1
  9
$ANGBASE
 50
0.0
  9
$ANGDIR
 70
     0
  9
$PDMODE
 70
     0
  9
$PDSIZE
 40
0.0
  9
$PLINEWID
 40
0.0
  9
$COORDS
 70
     2
  9
$SPLFRAME
 70
     0
  9
$SPLINETYPE
 70
     6
  9
$SPLINESEGS
 70
     8
  9
$ATTDIA
 70
     0
  9
$ATTREQ
 70
     1
  9
$HANDLING
 70
     0
  9
$HANDSEED
  5
0
  9
$SURFTAB1
 70
     6
  9
$SURFTAB2
 70
     6
  9
$SURFTYPE
 70
     6
  9
$SURFU
 70
     6
  9
$SURFV
 70
     6
  9
$UCSNAME
  2

  9
$UCSORG
 10
0.0
 20
0.0
 30
0.0
  9
$UCSXDIR
 10
1.0
 20
0.0
 30
0.0
  9
$UCSYDIR
 10
0.0
 20
1.0
 30
0.0
  9
$PUCSNAME
  2

  9
$PUCSORG
 10
0.0
 20
0.0
 30
0.0
  9
$PUCSXDIR
 10
1.0
 20
0.0
 30
0.0
  9
$PUCSYDIR
 10
0.0
 20
1.0
 30
0.0
  9
$USERI1
 70
     0
  9
$USERI2
 70
     0
  9
$USERI3
 70
     0
  9
$USERI4
 70
     0
  9
$USERI5
 70
     0
  9
$USERR1
 40
0.0
  9
$USERR2
 40
0.0
  9
$USERR3
 40
0.0
  9
$USERR4
 40
0.0
  9
$USERR5
 40
0.0
  9
$WORLDVIEW
 70
     1
  9
$SHADEDGE
 70
     3
  9
$SHADEDIF
 70
    70
  9
$TILEMODE
 70
     1
  9
$MAXACTVP
 70
    16
  9
$PINSBASE
 10
0.0
 20
0.0
 30
0.0
  9
$PLIMCHECK
 70
     0
  9
$PEXTMIN
 10
1.000000E+20
 20
1.000000E+20
 30
1.000000E+20
  9
$PEXTMAX
 10
-1.000000E+20
 20
-1.000000E+20
 30
-1.000000E+20
  9
$PLIMMIN
 10
0.0
 20
0.0
  9
$PLIMMAX
 10
12.0
 20
9.0
  9
$UNITMODE
 70
     0
  9
$VISRETAIN
 70
     0
  9
$PLINEGEN
 70
     0
  9
$PSLTSCALE
 70
     0
  9
$TREEDEPTH
 70
  3020
  9
$DWGCODEPAGE
  3
iso8859-1
  0
ENDSEC
  0
SECTION
  2
TABLES
  0
TABLE
  2
VPORT
 70
     2
  0
VPORT
  2
*ACTIVE
 70
     0
 10
0.0
 20
0.0
 11
1.0
 21
1.0
 12
117.624993
 22
-13.619592
 13
0.0
 23
0.0
 14
1.0
 24
1.0
 15
10.0
 25
10.0
 16
0.0
 26
0.0
 36
1.0
 17
0.0
 27
0.0
 37
0.0
 40
14.85
 41
1.611024
 42
50.0
 43
0.0
 44
0.0
 50
0.0
 51
0.0
 71
     0
 72
   100
 73
     1
 74
     0
 75
     0
 76
     0
 77
     0
 78
     2
  0
ENDTAB
  0
TABLE
  2
LTYPE
 70
     1
  0
LTYPE
  2
CONTINUOUS
 70
    64
  3
Solid line
 72
    65
 73
     0
 40
0.0
  0
ENDTAB
  0
TABLE
  2
LAYER
 70
     2
  0
LAYER
  2
0
 70
    64
 62
     7
  6
CONTINUOUS
  0
LAYER
  2
MESURA
 70
    64
 62
     7
  6
CONTINUOUS
  0
ENDTAB
  0
TABLE
  2
STYLE
 70
     2
  0
STYLE
  2
STANDARD
 70
     0
 40
0.0
 41
1.0
 50
0.0
 71
     0
 42
0.1
  3
txt
  4

  0
STYLE
  2
ROMANC
 70
    64
 40
0.0
 41
1.0
 50
0.0
 71
     0
 42
0.1
  3
romanc
  4

  0
ENDTAB
  0
TABLE
  2
VIEW
 70
     0
  0
ENDTAB
  0
TABLE
  2
UCS
 70
     0
  0
ENDTAB
  0
TABLE
  2
APPID
 70
     1
  0
APPID
  2
ACAD
 70
    64
  0
ENDTAB
  0
TABLE
  2
DIMSTYLE
 70
     0
  0
ENDTAB
  0
ENDSEC
  0
SECTION
  2
BLOCKS
  0
ENDSEC
  0
SECTION
  2
ENTITIES
  0
LINE
  8
0
 10
105.663143
 20
-6.194592
 30
0.0
 11
105.663143
 21
-21.044592
 31
0.0
  0
LINE
  8
0
 10
116.163143
 20
-21.044592
 30
0.0
 11
116.163143
 21
-6.194592
 31
0.0
  0
LINE
  8
0
 10
105.663143
 20
-21.044592
 30
0.0
 11
116.163143
 21
-21.044592
 31
0.0
  0
POLYLINE
  8
0
 66
     1
 10
0.0
 20
0.0
 30
0.0
 70
     1
  0
VERTEX
  8
0
 10
110.813879
 20
-15.131177
 30
0.0
  0
VERTEX
  8
0
 10
110.814066
 20
-15.142888
 30
0.0
 42
-0.174252
  0
VERTEX
  8
0
 10
110.804156
 20
-15.170308
 30
0.0
 42
-0.104203
 50
26.565051
  0
VERTEX
  8
0
 10
110.761015
 20
-15.204578
 30
0.0
 42
-0.064948
 70
     2
 50
26.565051
  0
VERTEX
  8
0
 10
110.702924
 20
-15.224732
 30
0.0
 42
-0.051099
  0
VERTEX
  8
0
 10
110.624066
 20
-15.232812
 30
0.0
 42
-0.051099
  0
VERTEX
  8
0
 10
110.545208
 20
-15.224732
 30
0.0
 42
-0.064948
 50
333.434949
  0
VERTEX
  8
0
 10
110.487117
 20
-15.204578
 30
0.0
 42
-0.104199
 70
     2
 50
333.434949
  0
VERTEX
  8
0
 10
110.443977
 20
-15.17031
 30
0.0
 42
-0.238474
  0
VERTEX
  8
0
 10
110.435342
 20
-15.13226
 30
0.0
  0
VERTEX
  8
0
 10
110.355861
 20
-15.132415
 30
0.0
  0
VERTEX
  8
0
 10
110.365593
 20
-14.338614
 30
0.0
 42
-0.09097
  0
VERTEX
  8
0
 10
110.38622
 20
-14.226176
 30
0.0
 42
-0.095051
 50
227.489553
  0
VERTEX
  8
0
 10
110.44351
 20
-14.133239
 30
0.0
 42
-0.101456
 70
     2
 50
227.489553
  0
VERTEX
  8
0
 10
110.530663
 20
-14.070143
 30
0.0
 42
-0.106502
  0
VERTEX
  8
0
 10
110.630593
 20
-14.048614
 30
0.0
 42
-0.106502
  0
VERTEX
  8
0
 10
110.730522
 20
-14.070143
 30
0.0
 42
-0.101456
 50
132.510447
  0
VERTEX
  8
0
 10
110.817676
 20
-14.133239
 30
0.0
 42
-0.095051
 70
     2
 50
132.510447
  0
VERTEX
  8
0
 10
110.874965
 20
-14.226176
 30
0.0
 42
-0.094607
  0
VERTEX
  8
0
 10
110.895559
 20
-14.343255
 30
0.0
  0
VERTEX
  8
0
 10
110.889879
 20
-15.13073
 30
0.0
  0
SEQEND
  8
0
  0
POLYLINE
  8
0
 66
     1
 10
0.0
 20
0.0
 30
0.0
 70
     1
  0
VERTEX
  8
0
 10
110.833524
 20
-15.151062
 30
0.0
 42
-0.141106
  0
VERTEX
  8
0
 10
110.819557
 20
-15.183067
 30
0.0
 42
-0.104203
 50
26.565051
  0
VERTEX
  8
0
 10
110.769959
 20
-15.222467
 30
0.0
 42
-0.064948
 70
     2
 50
26.565051
  0
VERTEX
  8
0
 10
110.70698
 20
-15.244316
 30
0.0
 42
-0.051099
  0
VERTEX
  8
0
 10
110.624066
 20
-15.252812
 30
0.0
 42
-0.051099
  0
VERTEX
  8
0
 10
110.541152
 20
-15.244316
 30
0.0
 42
-0.064948
 50
333.434949
  0
VERTEX
  8
0
 10
110.478172
 20
-15.222467
 30
0.0
 42
-0.104203
 70
     2
 50
333.434949
  0
VERTEX
  8
0
 10
110.428571
 20
-15.183064
 30
0.0
 42
-0.135762
  0
VERTEX
  8
0
 10
110.414776
 20
-15.152301
 30
0.0
  0
VERTEX
  8
0
 10
110.335613
 20
-15.152455
 30
0.0
  0
VERTEX
  8
0
 10
110.345593
 20
-14.338552
 30
0.0
 42
-0.090924
  0
VERTEX
  8
0
 10
110.367523
 20
-14.219077
 30
0.0
 42
-0.095051
 50
227.489553
  0
VERTEX
  8
0
 10
110.428767
 20
-14.119724
 30
0.0
 42
-0.101456
 70
     2
 50
227.489553
  0
VERTEX
  8
0
 10
110.522427
 20
-14.051918
 30
0.0
 42
-0.106502
  0
VERTEX
  8
0
 10
110.630593
 20
-14.028614
 30
0.0
 42
-0.106502
  0
VERTEX
  8
0
 10
110.738758
 20
-14.051918
 30
0.0
 42
-0.101456
 50
132.510447
  0
VERTEX
  8
0
 10
110.832419
 20
-14.119724
 30
0.0
 42
-0.095051
 70
     2
 50
132.510447
  0
VERTEX
  8
0
 10
110.893663
 20
-14.219077
 30
0.0
 42
-0.09458
  0
VERTEX
  8
0
 10
110.915558
 20
-14.343435
 30
0.0
  0
VERTEX
  8
0
 10
110.909736
 20
-15.150614
 30
0.0
  0
SEQEND
  8
0
  0
POLYLINE
  8
0
 66
     1
 10
0.0
 20
0.0
 30
0.0
 70
     1
  0
VERTEX
  8
0
 10
110.824039
 20
-15.141117
 30
0.0
  0
VERTEX
  8
0
 10
110.824066
 20
-15.142812
 30
0.0
 42
-0.174705
  0
VERTEX
  8
0
 10
110.811857
 20
-15.176688
 30
0.0
 42
-0.104203
 50
26.565051
  0
VERTEX
  8
0
 10
110.765487
 20
-15.213523
 30
0.0
 42
-0.064948
 70
     2
 50
26.565051
  0
VERTEX
  8
0
 10
110.704952
 20
-15.234524
 30
0.0
 42
-0.051099
  0
VERTEX
  8
0
 10
110.624066
 20
-15.242812
 30
0.0
 42
-0.051099
  0
VERTEX
  8
0
 10
110.54318
 20
-15.234524
 30
0.0
 42
-0.064948
 50
333.434949
  0
VERTEX
  8
0
 10
110.482644
 20
-15.213523
 30
0.0
 42
-0.104203
 70
     2
 50
333.434949
  0
VERTEX
  8
0
 10
110.436275
 20
-15.176688
 30
0.0
 42
-0.176847
  0
VERTEX
  8
0
 10
110.424053
 20
-15.142282
 30
0.0
  0
VERTEX
  8
0
 10
110.424053
 20
-15.142282
 30
0.0
  0
VERTEX
  8
0
 10
110.345737
 20
-15.142435
 30
0.0
  0
VERTEX
  8
0
 10
110.355593
 20
-14.338614
 30
0.0
 42
-0.09097
  0
VERTEX
  8
0
 10
110.376872
 20
-14.222627
 30
0.0
 42
-0.095051
 50
227.489553
  0
VERTEX
  8
0
 10
110.436138
 20
-14.126482
 30
0.0
 42
-0.101456
 70
     2
 50
227.489553
  0
VERTEX
  8
0
 10
110.526545
 20
-14.06103
 30
0.0
 42
-0.106502
  0
VERTEX
  8
0
 10
110.630593
 20
-14.038614
 30
0.0
 42
-0.106502
  0
VERTEX
  8
0
 10
110.73464
 20
-14.06103
 30
0.0
 42
-0.101456
 50
132.510447
  0
VERTEX
  8
0
 10
110.825047
 20
-14.126482
 30
0.0
 42
-0.095051
 70
     2
 50
132.510447
  0
VERTEX
  8
0
 10
110.884314
 20
-14.222627
 30
0.0
 42
-0.094607
  0
VERTEX
  8
0
 10
110.905559
 20
-14.343327
 30
0.0
  0
VERTEX
  8
0
 10
110.905559
 20
-14.343327
 30
0.0
  0
VERTEX
  8
0
 10
110.899808
 20
-15.140672
 30
0.0
  0
SEQEND
  8
0
  0
LINE
  8
0
 10
110.834238
 20
-15.448436
 30
0.0
 11
110.415465
 21
-15.448436
 31
0.0
  0
LINE
  8
0
 10
110.834238
 20
-15.155553
 30
0.0
 11
110.834238
 21
-15.448436
 31
0.0
  0
LINE
  8
0
 10
110.415465
 20
-15.155553
 30
0.0
 11
110.415465
 21
-15.448436
 31
0.0
  0
LINE
  8
MESURA
  6
BYBLOCK
 62
     0
 10
110.734238
 20
-15.548436
 30
0.0
 11
110.934238
 21
-15.348436
 31
0.0
  0
LINE
  8
MESURA
  6
BYBLOCK
 62
     0
 10
110.315465
 20
-15.548436
 30
0.0
 11
110.515465
 21
-15.348436
 31
0.0
  0
TEXT
  8
0
 10
110.456988
 20
-15.895997
 30
0.0
 40
0.1
  1
0.55
  7
ROMANC
  0
TEXT
  8
0
 10
110.485484
 20
-15.579425
 30
0.0
 40
0.1
  1
0.4
  7
ROMANC
  0
LINE
  8
0
 10
110.915878
 20
-15.649251
 30
0.0
 11
110.328825
 21
-15.649251
 31
0.0
  0
LINE
  8
0
 10
110.915878
 20
-15.162606
 30
0.0
 11
110.915878
 21
-15.649251
 31
0.0
  0
LINE
  8
0
 10
110.328825
 20
-15.162606
 30
0.0
 11
110.328825
 21
-15.649251
 31
0.0
  0
LINE
  8
MESURA
  6
BYBLOCK
 62
     0
 10
110.815878
 20
-15.749251
 30
0.0
 11
111.015878
 21
-15.549251
 31
0.0
  0
LINE
  8
MESURA
  6
BYBLOCK
 62
     0
 10
110.228825
 20
-15.749251
 30
0.0
 11
110.428825
 21
-15.549251
 31
0.0
  0
LINE
  8
0
 10
111.55679
 20
-15.268417
 30
0.0
 11
111.558061
 21
-14.018417
 31
0.0
  0
LINE
  8
MESURA
  6
BYBLOCK
 62
     0
 10
111.45804
 20
-14.139425
 30
0.0
 11
111.65804
 21
-13.939425
 31
0.0
  0
LINE
  8
MESURA
  6
BYBLOCK
 62
     0
 10
111.456815
 20
-15.343325
 30
0.0
 11
111.656815
 21
-15.143325
 31
0.0
  0
TEXT
  8
0
 10
108.227461
 20
-10.302602
 30
0.0
 40
0.3
  1
P = 31.5 dm
  7
ROMANC
  0
TEXT
  8
0
 10
108.193115
 20
-9.084447
 30
0.0
 40
0.3
  1
ESCALA  1:50
  7
ROMANC
  0
LINE
  8
0
 10
116.163143
 20
-6.194592
 30
0.0
 11
105.663143
 21
-6.194592
 31
0.0
  0
TEXT
  8
0
 10
108.193115
 20
-8.598732
 30
0.0
 40
0.3
  1
TIPUS   NT60
  7
ROMANC
  0
TEXT
  8
0
 10
108.20621
 20
-9.683037
 30
0.0
 40
0.3
  1
S =  60  dm
  7
ROMANC
  0
TEXT
  8
0
 10
111.714041
 20
-9.377121
 30
0.0
 40
0.1
  1
2
  7
ROMANC
  0
LINE
  8
0
 10
110.338944
 20
-13.818049
 30
0.0
 11
110.338944
 21
-14.304694
 31
0.0
  0
LINE
  8
0
 10
110.925998
 20
-13.818049
 30
0.0
 11
110.925998
 21
-14.304694
 31
0.0
  0
LINE
  8
0
 10
110.925998
 20
-13.818049
 30
0.0
 11
110.338944
 21
-13.818049
 31
0.0
  0
LINE
  8
MESURA
  6
BYBLOCK
 62
     0
 10
110.238944
 20
-13.918049
 30
0.0
 11
110.438944
 21
-13.718049
 31
0.0
  0
LINE
  8
MESURA
  6
BYBLOCK
 62
     0
 10
110.825998
 20
-13.918049
 30
0.0
 11
111.025998
 21
-13.718049
 31
0.0
  0
TEXT
  8
0
 10
110.456988
 20
-13.762017
 30
0.0
 40
0.1
  1
0.55
  7
ROMANC
  0
LINE
  8
0
 10
110.628865
 20
-14.03848
 30
0.0
 11
111.55804
 21
-14.039425
 31
0.0
  0
LINE
  8
0
 10
110.624936
 20
-15.242377
 30
0.0
 11
111.556815
 21
-15.243325
 31
0.0
  0
LINE
  8
0
 10
111.169838
 20
-15.242377
 30
0.0
 11
112.101717
 21
-15.243325
 31
0.0
  0
LINE
  8
0
 10
111.173767
 20
-14.03848
 30
0.0
 11
112.102942
 21
-14.039425
 31
0.0
  0
TEXT
  8
0
 10
112.186822
 20
-14.674213
 30
0.0
 40
0.1
  1
1.20
  7
ROMANC
  0
LINE
  8
MESURA
  6
BYBLOCK
 62
     0
 10
112.001717
 20
-15.343325
 30
0.0
 11
112.201717
 21
-15.143325
 31
0.0
  0
LINE
  8
MESURA
  6
BYBLOCK
 62
     0
 10
112.002942
 20
-14.139425
 30
0.0
 11
112.202942
 21
-13.939425
 31
0.0
  0
LINE
  8
0
 10
112.101692
 20
-15.268417
 30
0.0
 11
112.102963
 21
-14.018417
 31
0.0
  0
LINE
  8
0
 10
110.899808
 20
-15.140672
 30
0.0
 11
111.556919
 21
-15.14134
 31
0.0
  0
TEXT
  8
0
 10
111.55194
 20
-15.229279
 30
0.0
 40
0.1
  1
0.10
  7
ROMANC
  0
TEXT
  8
0
 10
111.55194
 20
-14.624598
 30
0.0
 40
0.1
  1
1.10
  7
ROMANC
  0
ENDSEC
  0
EOF
