  0
SECTION
  2
HEADER
  9
$ACADVER
  1
AC1009
  9
$INSBASE
 10
89.552922
 20
48.650881
 30
0.0
  9
$EXTMIN
 10
22.591444
 20
-21.448265
 30
0.0
  9
$EXTMAX
 10
228.671302
 20
98.615031
 30
0.0
  9
$LIMMIN
 10
0.0
 20
0.0
  9
$LIMMAX
 10
410.0
 20
287.0
  9
$ORTHOMODE
 70
     0
  9
$REGENMODE
 70
     1
  9
$FILLMODE
 70
     1
  9
$QTEXTMODE
 70
     0
  9
$MIRRTEXT
 70
     1
  9
$DRAGMODE
 70
     2
  9
$LTSCALE
 40
25.0
  9
$OSMODE
 70
    32
  9
$ATTMODE
 70
     1
  9
$TEXTSIZE
 40
0.1
  9
$TRACEWID
 40
1.0
  9
$TEXTSTYLE
  7
ROMANC
  9
$CLAYER
  8
0
  9
$CELTYPE
  6
BYLAYER
  9
$CECOLOR
 62
   256
  9
$DIMSCALE
 40
0.0
  9
$DIMASZ
 40
0.0
  9
$DIMEXO
 40
0.1
  9
$DIMDLI
 40
7.0
  9
$DIMRND
 40
0.0
  9
$DIMDLE
 40
0.0
  9
$DIMEXE
 40
1.8
  9
$DIMTP
 40
0.0
  9
$DIMTM
 40
0.0
  9
$DIMTXT
 40
0.03
  9
$DIMCEN
 40
1.5
  9
$DIMTSZ
 40
1.0
  9
$DIMTOL
 70
     0
  9
$DIMLIM
 70
     0
  9
$DIMTIH
 70
     0
  9
$DIMTOH
 70
     0
  9
$DIMSE1
 70
     0
  9
$DIMSE2
 70
     0
  9
$DIMTAD
 70
     0
  9
$DIMZIN
 70
     0
  9
$DIMBLK
  1

  9
$DIMASO
 70
     1
  9
$DIMSHO
 70
     0
  9
$DIMPOST
  1

  9
$DIMAPOST
  1

  9
$DIMALT
 70
     0
  9
$DIMALTD
 70
     2
  9
$DIMALTF
 40
25.4
  9
$DIMLFAC
 40
1.0
  9
$DIMTOFL
 70
     1
  9
$DIMTVP
 40
0.0
  9
$DIMTIX
 70
     1
  9
$DIMSOXD
 70
     0
  9
$DIMSAH
 70
     0
  9
$DIMBLK1
  1

  9
$DIMBLK2
  1

  9
$DIMSTYLE
  2
*UNNAMED
  9
$DIMCLRD
 70
     0
  9
$DIMCLRE
 70
     0
  9
$DIMCLRT
 70
     0
  9
$DIMTFAC
 40
116.666667
  9
$DIMGAP
 40
0.09
  9
$LUNITS
 70
     2
  9
$LUPREC
 70
     2
  9
$SKETCHINC
 40
1.0
  9
$FILLETRAD
 40
0.0
  9
$AUNITS
 70
     0
  9
$AUPREC
 70
     0
  9
$MENU
  1
acad
  9
$ELEVATION
 40
0.0
  9
$PELEVATION
 40
0.0
  9
$THICKNESS
 40
0.0
  9
$LIMCHECK
 70
     0
  9
$BLIPMODE
 70
     0
  9
$CHAMFERA
 40
0.0
  9
$CHAMFERB
 40
0.0
  9
$SKPOLY
 70
     0
  9
$TDCREATE
 40
2449962.705652662
  9
$TDUPDATE
 40
2450207.453457523
  9
$TDINDWG
 40
0.0001862269
  9
$TDUSRTIMER
 40
0.0001862269
  9
$USRTIMER
 70
     1
  9
$ANGBASE
 50
0.0
  9
$ANGDIR
 70
     0
  9
$PDMODE
 70
     0
  9
$PDSIZE
 40
0.0
  9
$PLINEWID
 40
0.0
  9
$COORDS
 70
     2
  9
$SPLFRAME
 70
     0
  9
$SPLINETYPE
 70
     6
  9
$SPLINESEGS
 70
     8
  9
$ATTDIA
 70
     0
  9
$ATTREQ
 70
     1
  9
$HANDLING
 70
     0
  9
$HANDSEED
  5
0
  9
$SURFTAB1
 70
     6
  9
$SURFTAB2
 70
     6
  9
$SURFTYPE
 70
     6
  9
$SURFU
 70
     6
  9
$SURFV
 70
     6
  9
$UCSNAME
  2

  9
$UCSORG
 10
0.0
 20
0.0
 30
0.0
  9
$UCSXDIR
 10
1.0
 20
0.0
 30
0.0
  9
$UCSYDIR
 10
0.0
 20
1.0
 30
0.0
  9
$PUCSNAME
  2

  9
$PUCSORG
 10
0.0
 20
0.0
 30
0.0
  9
$PUCSXDIR
 10
1.0
 20
0.0
 30
0.0
  9
$PUCSYDIR
 10
0.0
 20
1.0
 30
0.0
  9
$USERI1
 70
     0
  9
$USERI2
 70
     0
  9
$USERI3
 70
     0
  9
$USERI4
 70
     0
  9
$USERI5
 70
     0
  9
$USERR1
 40
0.0
  9
$USERR2
 40
0.0
  9
$USERR3
 40
0.0
  9
$USERR4
 40
0.0
  9
$USERR5
 40
0.0
  9
$WORLDVIEW
 70
     1
  9
$SHADEDGE
 70
     3
  9
$SHADEDIF
 70
    70
  9
$TILEMODE
 70
     1
  9
$MAXACTVP
 70
    16
  9
$PINSBASE
 10
0.0
 20
0.0
 30
0.0
  9
$PLIMCHECK
 70
     0
  9
$PEXTMIN
 10
1.000000E+20
 20
1.000000E+20
 30
1.000000E+20
  9
$PEXTMAX
 10
-1.000000E+20
 20
-1.000000E+20
 30
-1.000000E+20
  9
$PLIMMIN
 10
0.0
 20
0.0
  9
$PLIMMAX
 10
12.0
 20
9.0
  9
$UNITMODE
 70
     0
  9
$VISRETAIN
 70
     0
  9
$PLINEGEN
 70
     0
  9
$PSLTSCALE
 70
     0
  9
$TREEDEPTH
 70
  3020
  9
$DWGCODEPAGE
  3
iso8859-1
  0
ENDSEC
  0
SECTION
  2
TABLES
  0
TABLE
  2
VPORT
 70
     1
  0
VPORT
  2
*ACTIVE
 70
     0
 10
0.0
 20
0.0
 11
1.0
 21
1.0
 12
99.978333
 22
55.557347
 13
0.0
 23
0.0
 14
1.0
 24
1.0
 15
10.0
 25
10.0
 16
0.0
 26
0.0
 36
1.0
 17
0.0
 27
0.0
 37
0.0
 40
16.609363
 41
1.65
 42
50.0
 43
0.0
 44
0.0
 50
0.0
 51
0.0
 71
     0
 72
   100
 73
     1
 74
     0
 75
     0
 76
     0
 77
     0
 78
     2
  0
ENDTAB
  0
TABLE
  2
LTYPE
 70
     1
  0
LTYPE
  2
CONTINUOUS
 70
    64
  3
Solid line
 72
    65
 73
     0
 40
0.0
  0
ENDTAB
  0
TABLE
  2
LAYER
 70
     4
  0
LAYER
  2
0
 70
    64
 62
     7
  6
CONTINUOUS
  0
LAYER
  2
DEFPOINTS
 70
    64
 62
     7
  6
CONTINUOUS
  0
LAYER
  2
MESURA
 70
    64
 62
     7
  6
CONTINUOUS
  0
LAYER
  2
SECCIO
 70
    64
 62
     7
  6
CONTINUOUS
  0
ENDTAB
  0
TABLE
  2
STYLE
 70
     2
  0
STYLE
  2
STANDARD
 70
     0
 40
0.0
 41
1.0
 50
0.0
 71
     0
 42
0.1
  3
txt
  4

  0
STYLE
  2
ROMANC
 70
    64
 40
0.0
 41
1.0
 50
0.0
 71
     0
 42
0.1
  3
romanc
  4

  0
ENDTAB
  0
TABLE
  2
VIEW
 70
     0
  0
ENDTAB
  0
TABLE
  2
UCS
 70
     0
  0
ENDTAB
  0
TABLE
  2
APPID
 70
     1
  0
APPID
  2
ACAD
 70
    64
  0
ENDTAB
  0
TABLE
  2
DIMSTYLE
 70
     0
  0
ENDTAB
  0
ENDSEC
  0
SECTION
  2
BLOCKS
  0
ENDSEC
  0
SECTION
  2
ENTITIES
  0
LINE
  8
0
 10
100.052922
 20
48.650881
 30
0.0
 11
100.052922
 21
63.500881
 31
0.0
  0
LINE
  8
0
 10
89.552922
 20
63.500881
 30
0.0
 11
89.552922
 21
48.650881
 31
0.0
  0
TEXT
  8
0
 10
92.125344
 20
59.283327
 30
0.0
 40
0.3
  1
P = 95.4 dm
  7
ROMANC
  0
TEXT
  8
0
 10
92.128172
 20
59.956826
 30
0.0
 40
0.3
  1
S = 590  dm
  7
ROMANC
  0
LINE
  8
MESURA
  6
BYBLOCK
 62
     0
 10
92.491027
 20
53.316466
 30
0.0
 11
95.891027
 21
53.316466
 31
0.0
  0
LINE
  8
0
 10
89.552922
 20
48.650881
 30
0.0
 11
100.052922
 21
48.650881
 31
0.0
  0
LINE
  8
MESURA
  6
BYBLOCK
 62
     0
 10
92.491027
 20
53.685603
 30
0.0
 11
92.491027
 21
53.216466
 31
0.0
  0
LINE
  8
MESURA
  6
BYBLOCK
 62
     0
 10
92.491027
 20
53.316466
 30
0.0
 11
92.3796
 21
53.316466
 31
0.0
  0
LINE
  8
MESURA
  6
BYBLOCK
 62
     0
 10
92.391027
 20
53.216466
 30
0.0
 11
92.591027
 21
53.416466
 31
0.0
  0
POINT
  8
DEFPOINTS
  6
BYBLOCK
 62
     0
 10
92.491027
 20
53.685603
 30
0.0
  0
LINE
  8
0
 10
96.347206
 20
55.785603
 30
0.0
 11
96.347206
 21
53.685603
 31
0.0
  0
LINE
  8
MESURA
  6
BYBLOCK
 62
     0
 10
95.891027
 20
53.685603
 30
0.0
 11
95.891027
 21
53.216466
 31
0.0
  0
LINE
  8
MESURA
  6
BYBLOCK
 62
     0
 10
95.891027
 20
53.316466
 30
0.0
 11
95.976714
 21
53.316466
 31
0.0
  0
LINE
  8
MESURA
  6
BYBLOCK
 62
     0
 10
95.791027
 20
53.216466
 30
0.0
 11
95.991027
 21
53.416466
 31
0.0
  0
POINT
  8
DEFPOINTS
  6
BYBLOCK
 62
     0
 10
95.891027
 20
53.685603
 30
0.0
  0
POINT
  8
DEFPOINTS
  6
BYBLOCK
 62
     0
 10
95.891027
 20
53.316466
 30
0.0
  0
LINE
  8
MESURA
 10
96.397206
 20
53.751713
 30
0.0
 11
96.297206
 21
53.619493
 31
0.0
  0
LINE
  8
MESURA
 10
95.891027
 20
53.685603
 30
0.0
 11
96.347206
 21
53.685603
 31
0.0
  0
TEXT
  8
0
 10
94.090542
 20
53.15955
 30
0.0
 40
0.1
  1
3.4
  7
ROMANC
  0
TEXT
  8
0
 10
95.636003
 20
60.262742
 30
0.0
 40
0.1
  1
2
  7
ROMANC
  0
LINE
  8
MESURA
 10
94.191027
 20
55.785603
 30
0.0
 11
96.347206
 21
55.785603
 31
0.0
  0
LINE
  8
MESURA
 10
96.397206
 20
55.851713
 30
0.0
 11
96.297206
 21
55.719493
 31
0.0
  0
TEXT
  8
0
 10
96.44222
 20
54.743937
 30
0.0
 40
0.1
  1
2.1
  7
ROMANC
  0
TEXT
  8
0
 10
92.082895
 20
61.096741
 30
0.0
 40
0.3
  1
TIPUS   NT590
  7
ROMANC
  0
TEXT
  8
0
 10
92.082895
 20
60.611026
 30
0.0
 40
0.3
  1
ESCALA  1:50
  7
ROMANC
  0
LINE
  8
0
 10
100.052922
 20
63.500881
 30
0.0
 11
89.552922
 21
63.500881
 31
0.0
  0
ARC
  8
SECCIO
 10
94.191027
 20
54.085603
 30
0.0
 40
1.7
 50
360.0
 51
45.0
  0
ARC
  8
SECCIO
 10
94.191027
 20
54.085603
 30
0.0
 40
1.7
 50
45.0
 51
90.0
  0
ARC
  8
SECCIO
 10
94.191027
 20
54.085603
 30
0.0
 40
1.7
 50
90.0
 51
135.0
  0
ARC
  8
SECCIO
 10
94.191027
 20
54.085603
 30
0.0
 40
1.7
 50
135.0
 51
180.0
  0
LINE
  8
SECCIO
 10
92.491027
 20
54.085603
 30
0.0
 11
92.491027
 21
53.707665
 31
0.0
  0
LINE
  8
SECCIO
 10
92.491027
 20
53.707665
 30
0.0
 11
92.491027
 21
53.685603
 31
0.0
  0
LINE
  8
SECCIO
 10
92.491027
 20
53.685603
 30
0.0
 11
92.553634
 21
53.685603
 31
0.0
  0
LINE
  8
SECCIO
 10
92.553634
 20
53.685603
 30
0.0
 11
94.213988
 21
53.685603
 31
0.0
  0
LINE
  8
SECCIO
 10
94.213988
 20
53.685603
 30
0.0
 11
95.46485
 21
53.685603
 31
0.0
  0
LINE
  8
SECCIO
 10
95.46485
 20
53.685603
 30
0.0
 11
95.845092
 21
53.685603
 31
0.0
  0
LINE
  8
SECCIO
 10
95.845092
 20
53.685603
 30
0.0
 11
95.891027
 21
53.685603
 31
0.0
  0
LINE
  8
SECCIO
 10
95.891027
 20
53.685603
 30
0.0
 11
95.891027
 21
53.707665
 31
0.0
  0
LINE
  8
SECCIO
 10
95.891027
 20
53.707665
 30
0.0
 11
95.891027
 21
54.085603
 31
0.0
  0
ARC
  8
SECCIO
 10
94.191027
 20
54.085603
 30
0.0
 40
1.69
 50
360.0
 51
45.0
  0
ARC
  8
SECCIO
 10
94.191027
 20
54.085603
 30
0.0
 40
1.69
 50
45.0
 51
90.0
  0
ARC
  8
SECCIO
 10
94.191027
 20
54.085603
 30
0.0
 40
1.69
 50
90.0
 51
135.0
  0
ARC
  8
SECCIO
 10
94.191027
 20
54.085603
 30
0.0
 40
1.69
 50
135.0
 51
180.0
  0
LINE
  8
SECCIO
 10
92.501027
 20
54.085603
 30
0.0
 11
92.501027
 21
53.695603
 31
0.0
  0
LINE
  8
SECCIO
 10
92.501027
 20
53.695603
 30
0.0
 11
95.881027
 21
53.695603
 31
0.0
  0
LINE
  8
SECCIO
 10
95.881027
 20
53.695603
 30
0.0
 11
95.881027
 21
54.085603
 31
0.0
  0
ARC
  8
SECCIO
 10
94.191027
 20
54.085603
 30
0.0
 40
1.71
 50
0.0
 51
45.0
  0
ARC
  8
SECCIO
 10
94.191027
 20
54.085603
 30
0.0
 40
1.71
 50
45.0
 51
90.0
  0
ARC
  8
SECCIO
 10
94.191027
 20
54.085603
 30
0.0
 40
1.71
 50
90.0
 51
135.0
  0
ARC
  8
SECCIO
 10
94.191027
 20
54.085603
 30
0.0
 40
1.71
 50
135.0
 51
180.0
  0
LINE
  8
SECCIO
 10
92.481027
 20
54.085603
 30
0.0
 11
92.481027
 21
53.675603
 31
0.0
  0
LINE
  8
SECCIO
 10
92.481027
 20
53.675603
 30
0.0
 11
95.901027
 21
53.675603
 31
0.0
  0
LINE
  8
SECCIO
 10
95.901027
 20
53.675603
 30
0.0
 11
95.901027
 21
54.085603
 31
0.0
  0
ENDSEC
  0
EOF
