  0
SECTION
  2
HEADER
  9
$ACADVER
  1
AC1009
  9
$INSBASE
 10
105.464027
 20
-4.528761
 30
0.0
  9
$EXTMIN
 10
281.395795
 20
29.897444
 30
0.0
  9
$EXTMAX
 10
291.917712
 20
44.747444
 30
0.0
  9
$LIMMIN
 10
0.0
 20
0.0
  9
$LIMMAX
 10
410.0
 20
287.0
  9
$ORTHOMODE
 70
     1
  9
$REGENMODE
 70
     1
  9
$FILLMODE
 70
     1
  9
$QTEXTMODE
 70
     0
  9
$MIRRTEXT
 70
     1
  9
$DRAGMODE
 70
     2
  9
$LTSCALE
 40
25.0
  9
$OSMODE
 70
    32
  9
$ATTMODE
 70
     1
  9
$TEXTSIZE
 40
0.1
  9
$TRACEWID
 40
1.0
  9
$TEXTSTYLE
  7
ROMANC
  9
$CLAYER
  8
0
  9
$CELTYPE
  6
BYLAYER
  9
$CECOLOR
 62
   256
  9
$DIMSCALE
 40
1.5
  9
$DIMASZ
 40
0.1
  9
$DIMEXO
 40
0.01
  9
$DIMDLI
 40
7.0
  9
$DIMRND
 40
0.0
  9
$DIMDLE
 40
0.0
  9
$DIMEXE
 40
0.01
  9
$DIMTP
 40
0.0
  9
$DIMTM
 40
0.0
  9
$DIMTXT
 40
0.05
  9
$DIMCEN
 40
0.1
  9
$DIMTSZ
 40
0.0
  9
$DIMTOL
 70
     0
  9
$DIMLIM
 70
     0
  9
$DIMTIH
 70
     0
  9
$DIMTOH
 70
     0
  9
$DIMSE1
 70
     0
  9
$DIMSE2
 70
     0
  9
$DIMTAD
 70
     1
  9
$DIMZIN
 70
     0
  9
$DIMBLK
  1

  9
$DIMASO
 70
     1
  9
$DIMSHO
 70
     0
  9
$DIMPOST
  1

  9
$DIMAPOST
  1

  9
$DIMALT
 70
     0
  9
$DIMALTD
 70
     2
  9
$DIMALTF
 40
25.4
  9
$DIMLFAC
 40
1.0
  9
$DIMTOFL
 70
     1
  9
$DIMTVP
 40
0.0
  9
$DIMTIX
 70
     1
  9
$DIMSOXD
 70
     0
  9
$DIMSAH
 70
     0
  9
$DIMBLK1
  1

  9
$DIMBLK2
  1

  9
$DIMSTYLE
  2
*UNNAMED
  9
$DIMCLRD
 70
     0
  9
$DIMCLRE
 70
     0
  9
$DIMCLRT
 70
     0
  9
$DIMTFAC
 40
70.0
  9
$DIMGAP
 40
0.09
  9
$LUNITS
 70
     2
  9
$LUPREC
 70
     2
  9
$SKETCHINC
 40
1.0
  9
$FILLETRAD
 40
0.0
  9
$AUNITS
 70
     0
  9
$AUPREC
 70
     0
  9
$MENU
  1
acad
  9
$ELEVATION
 40
0.0
  9
$PELEVATION
 40
0.0
  9
$THICKNESS
 40
0.0
  9
$LIMCHECK
 70
     0
  9
$BLIPMODE
 70
     0
  9
$CHAMFERA
 40
0.0
  9
$CHAMFERB
 40
0.0
  9
$SKPOLY
 70
     0
  9
$TDCREATE
 40
2450305.554557986
  9
$TDUPDATE
 40
2450725.581022685
  9
$TDINDWG
 40
0.0364020833
  9
$TDUSRTIMER
 40
0.0364020833
  9
$USRTIMER
 70
     1
  9
$ANGBASE
 50
0.0
  9
$ANGDIR
 70
     0
  9
$PDMODE
 70
     0
  9
$PDSIZE
 40
0.0
  9
$PLINEWID
 40
0.0
  9
$COORDS
 70
     2
  9
$SPLFRAME
 70
     0
  9
$SPLINETYPE
 70
     6
  9
$SPLINESEGS
 70
     8
  9
$ATTDIA
 70
     0
  9
$ATTREQ
 70
     1
  9
$HANDLING
 70
     0
  9
$HANDSEED
  5
0
  9
$SURFTAB1
 70
     6
  9
$SURFTAB2
 70
     6
  9
$SURFTYPE
 70
     6
  9
$SURFU
 70
     6
  9
$SURFV
 70
     6
  9
$UCSNAME
  2

  9
$UCSORG
 10
0.0
 20
0.0
 30
0.0
  9
$UCSXDIR
 10
1.0
 20
0.0
 30
0.0
  9
$UCSYDIR
 10
0.0
 20
1.0
 30
0.0
  9
$PUCSNAME
  2

  9
$PUCSORG
 10
0.0
 20
0.0
 30
0.0
  9
$PUCSXDIR
 10
1.0
 20
0.0
 30
0.0
  9
$PUCSYDIR
 10
0.0
 20
1.0
 30
0.0
  9
$USERI1
 70
     0
  9
$USERI2
 70
     0
  9
$USERI3
 70
     0
  9
$USERI4
 70
     0
  9
$USERI5
 70
     0
  9
$USERR1
 40
0.0
  9
$USERR2
 40
0.0
  9
$USERR3
 40
0.0
  9
$USERR4
 40
0.0
  9
$USERR5
 40
0.0
  9
$WORLDVIEW
 70
     1
  9
$SHADEDGE
 70
     3
  9
$SHADEDIF
 70
    70
  9
$TILEMODE
 70
     1
  9
$MAXACTVP
 70
    16
  9
$PINSBASE
 10
0.0
 20
0.0
 30
0.0
  9
$PLIMCHECK
 70
     0
  9
$PEXTMIN
 10
1.000000E+20
 20
1.000000E+20
 30
1.000000E+20
  9
$PEXTMAX
 10
-1.000000E+20
 20
-1.000000E+20
 30
-1.000000E+20
  9
$PLIMMIN
 10
0.0
 20
0.0
  9
$PLIMMAX
 10
12.0
 20
9.0
  9
$UNITMODE
 70
     0
  9
$VISRETAIN
 70
     0
  9
$PLINEGEN
 70
     0
  9
$PSLTSCALE
 70
     0
  9
$TREEDEPTH
 70
  3020
  9
$DWGCODEPAGE
  3
iso8859-1
  0
ENDSEC
  0
SECTION
  2
TABLES
  0
TABLE
  2
VPORT
 70
     2
  0
VPORT
  2
*ACTIVE
 70
     0
 10
0.0
 20
0.0
 11
1.0
 21
1.0
 12
293.549035
 22
37.441244
 13
0.0
 23
0.0
 14
1.0
 24
1.0
 15
10.0
 25
10.0
 16
0.0
 26
0.0
 36
1.0
 17
0.0
 27
0.0
 37
0.0
 40
15.0876
 41
1.611024
 42
50.0
 43
0.0
 44
0.0
 50
0.0
 51
0.0
 71
     0
 72
   100
 73
     1
 74
     0
 75
     0
 76
     0
 77
     0
 78
     1
  0
ENDTAB
  0
TABLE
  2
LTYPE
 70
     1
  0
LTYPE
  2
CONTINUOUS
 70
    64
  3
Solid line
 72
    65
 73
     0
 40
0.0
  0
ENDTAB
  0
TABLE
  2
LAYER
 70
     3
  0
LAYER
  2
0
 70
    64
 62
     7
  6
CONTINUOUS
  0
LAYER
  2
MESURA
 70
     0
 62
     7
  6
CONTINUOUS
  0
LAYER
  2
DEFPOINTS
 70
    64
 62
     7
  6
CONTINUOUS
  0
ENDTAB
  0
TABLE
  2
STYLE
 70
     2
  0
STYLE
  2
STANDARD
 70
     0
 40
0.0
 41
1.0
 50
0.0
 71
     0
 42
0.1
  3
txt
  4

  0
STYLE
  2
ROMANC
 70
    64
 40
0.0
 41
1.0
 50
0.0
 71
     0
 42
0.1
  3
romanc
  4

  0
ENDTAB
  0
TABLE
  2
VIEW
 70
     0
  0
ENDTAB
  0
TABLE
  2
UCS
 70
     0
  0
ENDTAB
  0
TABLE
  2
APPID
 70
     1
  0
APPID
  2
ACAD
 70
    64
  0
ENDTAB
  0
TABLE
  2
DIMSTYLE
 70
     1
  0
DIMSTYLE
  2
SILVIA
 70
     0
  3

  4

  5

  6

  7

 40
1.5
 41
0.1
 42
0.01
 43
7.0
 44
0.01
 45
0.0
 46
0.0
 47
0.0
 48
0.0
140
0.05
141
0.1
142
0.0
143
25.4
144
1.0
145
0.0
146
70.0
147
0.09
 71
     0
 72
     0
 73
     0
 74
     0
 75
     0
 76
     0
 77
     1
 78
     0
170
     0
171
     2
172
     1
173
     0
174
     1
175
     0
176
     0
177
     0
178
     0
  0
ENDTAB
  0
ENDSEC
  0
SECTION
  2
BLOCKS
  0
BLOCK
  8
0
  2
*D6
 70
    65
 10
0.0
 20
0.0
 30
0.0
  3
*D
  0
LINE
  8
0
  6
BYBLOCK
 62
     0
 10
285.110604
 20
34.330439
 30
0.0
 11
285.110604
 21
32.195401
 31
0.0
  0
LINE
  8
0
  6
BYBLOCK
 62
     0
 10
287.060604
 20
34.330439
 30
0.0
 11
287.060604
 21
32.195401
 31
0.0
  0
LINE
  8
0
  6
BYBLOCK
 62
     0
 10
285.260604
 20
32.210401
 30
0.0
 11
286.910604
 21
32.210401
 31
0.0
  0
SOLID
  8
0
  6
BYBLOCK
 62
     0
 10
285.260604
 20
32.235401
 30
0.0
 11
285.260604
 21
32.185401
 31
0.0
 12
285.110604
 22
32.210401
 32
0.0
 13
285.110604
 23
32.210401
 33
0.0
  0
SOLID
  8
0
  6
BYBLOCK
 62
     0
 10
286.910604
 20
32.235401
 30
0.0
 11
286.910604
 21
32.185401
 31
0.0
 12
287.060604
 22
32.210401
 32
0.0
 13
287.060604
 23
32.210401
 33
0.0
  0
TEXT
  8
0
  6
BYBLOCK
 62
     0
 10
285.955247
 20
32.247901
 30
0.0
 40
0.075
  1
1.95
  7
ROMANC
 72
     1
 11
286.085604
 21
32.285401
 31
0.0
 73
     2
  0
POINT
  8
DEFPOINTS
  6
BYBLOCK
 62
     0
 10
285.110604
 20
34.345439
 30
0.0
  0
POINT
  8
DEFPOINTS
  6
BYBLOCK
 62
     0
 10
287.060604
 20
34.345439
 30
0.0
  0
POINT
  8
DEFPOINTS
  6
BYBLOCK
 62
     0
 10
287.060604
 20
32.210401
 30
0.0
  0
ENDBLK
  8
0
  0
BLOCK
  8
0
  2
*D7
 70
    65
 10
0.0
 20
0.0
 30
0.0
  3
*D
  0
LINE
  8
0
  6
BYBLOCK
 62
     0
 10
285.110604
 20
34.330439
 30
0.0
 11
285.110604
 21
33.452701
 31
0.0
  0
LINE
  8
0
  6
BYBLOCK
 62
     0
 10
285.735604
 20
34.330439
 30
0.0
 11
285.735604
 21
33.452701
 31
0.0
  0
LINE
  8
0
  6
BYBLOCK
 62
     0
 10
284.960604
 20
33.467701
 30
0.0
 11
284.810604
 21
33.467701
 31
0.0
  0
LINE
  8
0
  6
BYBLOCK
 62
     0
 10
285.885604
 20
33.467701
 30
0.0
 11
286.035604
 21
33.467701
 31
0.0
  0
SOLID
  8
0
  6
BYBLOCK
 62
     0
 10
284.960604
 20
33.492701
 30
0.0
 11
284.960604
 21
33.442701
 31
0.0
 12
285.110604
 22
33.467701
 32
0.0
 13
285.110604
 23
33.467701
 33
0.0
  0
SOLID
  8
0
  6
BYBLOCK
 62
     0
 10
285.885604
 20
33.492701
 30
0.0
 11
285.885604
 21
33.442701
 31
0.0
 12
285.735604
 22
33.467701
 32
0.0
 13
285.735604
 23
33.467701
 33
0.0
  0
LINE
  8
0
  6
BYBLOCK
 62
     0
 10
285.110604
 20
33.467701
 30
0.0
 11
285.735604
 21
33.467701
 31
0.0
  0
TEXT
  8
0
  6
BYBLOCK
 62
     0
 10
285.298104
 20
33.505201
 30
0.0
 40
0.075
  1
0.63
  7
ROMANC
 72
     1
 11
285.423104
 21
33.542701
 31
0.0
 73
     2
  0
POINT
  8
DEFPOINTS
  6
BYBLOCK
 62
     0
 10
285.110604
 20
34.345439
 30
0.0
  0
POINT
  8
DEFPOINTS
  6
BYBLOCK
 62
     0
 10
285.735604
 20
34.345439
 30
0.0
  0
POINT
  8
DEFPOINTS
  6
BYBLOCK
 62
     0
 10
285.735604
 20
33.467701
 30
0.0
  0
ENDBLK
  8
0
  0
BLOCK
  8
0
  2
*D8
 70
    65
 10
0.0
 20
0.0
 30
0.0
  3
*D
  0
LINE
  8
0
  6
BYBLOCK
 62
     0
 10
285.735604
 20
34.330439
 30
0.0
 11
285.735604
 21
33.452701
 31
0.0
  0
LINE
  8
0
  6
BYBLOCK
 62
     0
 10
286.435604
 20
34.330439
 30
0.0
 11
286.435604
 21
33.452701
 31
0.0
  0
LINE
  8
0
  6
BYBLOCK
 62
     0
 10
285.585604
 20
33.467701
 30
0.0
 11
285.435604
 21
33.467701
 31
0.0
  0
LINE
  8
0
  6
BYBLOCK
 62
     0
 10
286.585604
 20
33.467701
 30
0.0
 11
286.735604
 21
33.467701
 31
0.0
  0
SOLID
  8
0
  6
BYBLOCK
 62
     0
 10
285.585604
 20
33.492701
 30
0.0
 11
285.585604
 21
33.442701
 31
0.0
 12
285.735604
 22
33.467701
 32
0.0
 13
285.735604
 23
33.467701
 33
0.0
  0
SOLID
  8
0
  6
BYBLOCK
 62
     0
 10
286.585604
 20
33.492701
 30
0.0
 11
286.585604
 21
33.442701
 31
0.0
 12
286.435604
 22
33.467701
 32
0.0
 13
286.435604
 23
33.467701
 33
0.0
  0
LINE
  8
0
  6
BYBLOCK
 62
     0
 10
285.735604
 20
33.467701
 30
0.0
 11
286.435604
 21
33.467701
 31
0.0
  0
TEXT
  8
0
  6
BYBLOCK
 62
     0
 10
285.960604
 20
33.505201
 30
0.0
 40
0.075
  1
0.70
  7
ROMANC
 72
     1
 11
286.085604
 21
33.542701
 31
0.0
 73
     2
  0
POINT
  8
DEFPOINTS
  6
BYBLOCK
 62
     0
 10
285.735604
 20
34.345439
 30
0.0
  0
POINT
  8
DEFPOINTS
  6
BYBLOCK
 62
     0
 10
286.435604
 20
34.345439
 30
0.0
  0
POINT
  8
DEFPOINTS
  6
BYBLOCK
 62
     0
 10
286.435604
 20
33.467701
 30
0.0
  0
ENDBLK
  8
0
  0
BLOCK
  8
0
  2
*D9
 70
    65
 10
0.0
 20
0.0
 30
0.0
  3
*D
  0
LINE
  8
0
  6
BYBLOCK
 62
     0
 10
286.435604
 20
34.330439
 30
0.0
 11
286.435604
 21
33.452701
 31
0.0
  0
LINE
  8
0
  6
BYBLOCK
 62
     0
 10
287.060604
 20
34.330439
 30
0.0
 11
287.060604
 21
33.452701
 31
0.0
  0
LINE
  8
0
  6
BYBLOCK
 62
     0
 10
286.285604
 20
33.467701
 30
0.0
 11
286.135604
 21
33.467701
 31
0.0
  0
LINE
  8
0
  6
BYBLOCK
 62
     0
 10
287.210604
 20
33.467701
 30
0.0
 11
287.360604
 21
33.467701
 31
0.0
  0
SOLID
  8
0
  6
BYBLOCK
 62
     0
 10
286.285604
 20
33.492701
 30
0.0
 11
286.285604
 21
33.442701
 31
0.0
 12
286.435604
 22
33.467701
 32
0.0
 13
286.435604
 23
33.467701
 33
0.0
  0
SOLID
  8
0
  6
BYBLOCK
 62
     0
 10
287.210604
 20
33.492701
 30
0.0
 11
287.210604
 21
33.442701
 31
0.0
 12
287.060604
 22
33.467701
 32
0.0
 13
287.060604
 23
33.467701
 33
0.0
  0
LINE
  8
0
  6
BYBLOCK
 62
     0
 10
286.435604
 20
33.467701
 30
0.0
 11
287.060604
 21
33.467701
 31
0.0
  0
TEXT
  8
0
  6
BYBLOCK
 62
     0
 10
286.623104
 20
33.505201
 30
0.0
 40
0.075
  1
0.62
  7
ROMANC
 72
     1
 11
286.748104
 21
33.542701
 31
0.0
 73
     2
  0
POINT
  8
DEFPOINTS
  6
BYBLOCK
 62
     0
 10
286.435604
 20
34.345439
 30
0.0
  0
POINT
  8
DEFPOINTS
  6
BYBLOCK
 62
     0
 10
287.060604
 20
34.345439
 30
0.0
  0
POINT
  8
DEFPOINTS
  6
BYBLOCK
 62
     0
 10
287.060604
 20
33.467701
 30
0.0
  0
ENDBLK
  8
0
  0
BLOCK
  8
0
  2
*D10
 70
    65
 10
0.0
 20
0.0
 30
0.0
  3
*D
  0
LINE
  8
0
  6
BYBLOCK
 62
     0
 10
286.100604
 20
37.395439
 30
0.0
 11
288.570407
 21
37.395439
 31
0.0
  0
LINE
  8
0
  6
BYBLOCK
 62
     0
 10
286.100604
 20
33.945439
 30
0.0
 11
288.570407
 21
33.945439
 31
0.0
  0
LINE
  8
0
  6
BYBLOCK
 62
     0
 10
288.555407
 20
37.245439
 30
0.0
 11
288.555407
 21
34.095439
 31
0.0
  0
SOLID
  8
0
  6
BYBLOCK
 62
     0
 10
288.530407
 20
37.245439
 30
0.0
 11
288.580407
 21
37.245439
 31
0.0
 12
288.555407
 22
37.395439
 32
0.0
 13
288.555407
 23
37.395439
 33
0.0
  0
SOLID
  8
0
  6
BYBLOCK
 62
     0
 10
288.530407
 20
34.095439
 30
0.0
 11
288.580407
 21
34.095439
 31
0.0
 12
288.555407
 22
33.945439
 32
0.0
 13
288.555407
 23
33.945439
 33
0.0
  0
TEXT
  8
0
  6
BYBLOCK
 62
     0
 10
288.517907
 20
35.545439
 30
0.0
 40
0.075
  1
3.45
 50
90.0
  7
ROMANC
 72
     1
 11
288.480407
 21
35.670439
 31
0.0
 73
     2
  0
POINT
  8
DEFPOINTS
  6
BYBLOCK
 62
     0
 10
286.085604
 20
37.395439
 30
0.0
  0
POINT
  8
DEFPOINTS
  6
BYBLOCK
 62
     0
 10
286.085604
 20
33.945439
 30
0.0
  0
POINT
  8
DEFPOINTS
  6
BYBLOCK
 62
     0
 10
288.555407
 20
33.945439
 30
0.0
  0
ENDBLK
  8
0
  0
BLOCK
  8
0
  2
*D11
 70
    65
 10
0.0
 20
0.0
 30
0.0
  3
*D
  0
LINE
  8
0
  6
BYBLOCK
 62
     0
 10
286.100604
 20
37.395439
 30
0.0
 11
287.948995
 21
37.395439
 31
0.0
  0
LINE
  8
0
  6
BYBLOCK
 62
     0
 10
286.100604
 20
36.445439
 30
0.0
 11
287.948995
 21
36.445439
 31
0.0
  0
LINE
  8
0
  6
BYBLOCK
 62
     0
 10
287.933995
 20
37.245439
 30
0.0
 11
287.933995
 21
36.595439
 31
0.0
  0
SOLID
  8
0
  6
BYBLOCK
 62
     0
 10
287.908995
 20
37.245439
 30
0.0
 11
287.958995
 21
37.245439
 31
0.0
 12
287.933995
 22
37.395439
 32
0.0
 13
287.933995
 23
37.395439
 33
0.0
  0
SOLID
  8
0
  6
BYBLOCK
 62
     0
 10
287.908995
 20
36.595439
 30
0.0
 11
287.958995
 21
36.595439
 31
0.0
 12
287.933995
 22
36.445439
 32
0.0
 13
287.933995
 23
36.445439
 33
0.0
  0
TEXT
  8
0
  6
BYBLOCK
 62
     0
 10
287.896495
 20
36.795439
 30
0.0
 40
0.075
  1
0.95
 50
90.0
  7
ROMANC
 72
     1
 11
287.858995
 21
36.920439
 31
0.0
 73
     2
  0
POINT
  8
DEFPOINTS
  6
BYBLOCK
 62
     0
 10
286.085604
 20
37.395439
 30
0.0
  0
POINT
  8
DEFPOINTS
  6
BYBLOCK
 62
     0
 10
286.085604
 20
36.445439
 30
0.0
  0
POINT
  8
DEFPOINTS
  6
BYBLOCK
 62
     0
 10
287.933995
 20
36.445439
 30
0.0
  0
ENDBLK
  8
0
  0
BLOCK
  8
0
  2
*D12
 70
    65
 10
0.0
 20
0.0
 30
0.0
  3
*D
  0
LINE
  8
0
  6
BYBLOCK
 62
     0
 10
286.100604
 20
36.445439
 30
0.0
 11
287.948995
 21
36.445439
 31
0.0
  0
LINE
  8
0
  6
BYBLOCK
 62
     0
 10
287.075604
 20
34.345439
 30
0.0
 11
287.948995
 21
34.345439
 31
0.0
  0
LINE
  8
0
  6
BYBLOCK
 62
     0
 10
287.933995
 20
36.295439
 30
0.0
 11
287.933995
 21
34.495439
 31
0.0
  0
SOLID
  8
0
  6
BYBLOCK
 62
     0
 10
287.908995
 20
36.295439
 30
0.0
 11
287.958995
 21
36.295439
 31
0.0
 12
287.933995
 22
36.445439
 32
0.0
 13
287.933995
 23
36.445439
 33
0.0
  0
SOLID
  8
0
  6
BYBLOCK
 62
     0
 10
287.908995
 20
34.495439
 30
0.0
 11
287.958995
 21
34.495439
 31
0.0
 12
287.933995
 22
34.345439
 32
0.0
 13
287.933995
 23
34.345439
 33
0.0
  0
TEXT
  8
0
  6
BYBLOCK
 62
     0
 10
287.896495
 20
35.270439
 30
0.0
 40
0.075
  1
2.10
 50
90.0
  7
ROMANC
 72
     1
 11
287.858995
 21
35.395439
 31
0.0
 73
     2
  0
POINT
  8
DEFPOINTS
  6
BYBLOCK
 62
     0
 10
286.085604
 20
36.445439
 30
0.0
  0
POINT
  8
DEFPOINTS
  6
BYBLOCK
 62
     0
 10
287.060604
 20
34.345439
 30
0.0
  0
POINT
  8
DEFPOINTS
  6
BYBLOCK
 62
     0
 10
287.933995
 20
34.345439
 30
0.0
  0
ENDBLK
  8
0
  0
BLOCK
  8
0
  2
*D13
 70
    65
 10
0.0
 20
0.0
 30
0.0
  3
*D
  0
LINE
  8
0
  6
BYBLOCK
 62
     0
 10
287.075604
 20
34.345439
 30
0.0
 11
287.948995
 21
34.345439
 31
0.0
  0
LINE
  8
0
  6
BYBLOCK
 62
     0
 10
286.100604
 20
33.945439
 30
0.0
 11
287.948995
 21
33.945439
 31
0.0
  0
LINE
  8
0
  6
BYBLOCK
 62
     0
 10
287.933995
 20
34.495439
 30
0.0
 11
287.933995
 21
34.645439
 31
0.0
  0
LINE
  8
0
  6
BYBLOCK
 62
     0
 10
287.933995
 20
33.795439
 30
0.0
 11
287.933995
 21
33.645439
 31
0.0
  0
SOLID
  8
0
  6
BYBLOCK
 62
     0
 10
287.908995
 20
34.495439
 30
0.0
 11
287.958995
 21
34.495439
 31
0.0
 12
287.933995
 22
34.345439
 32
0.0
 13
287.933995
 23
34.345439
 33
0.0
  0
SOLID
  8
0
  6
BYBLOCK
 62
     0
 10
287.908995
 20
33.795439
 30
0.0
 11
287.958995
 21
33.795439
 31
0.0
 12
287.933995
 22
33.945439
 32
0.0
 13
287.933995
 23
33.945439
 33
0.0
  0
LINE
  8
0
  6
BYBLOCK
 62
     0
 10
287.933995
 20
34.345439
 30
0.0
 11
287.933995
 21
33.945439
 31
0.0
  0
TEXT
  8
0
  6
BYBLOCK
 62
     0
 10
287.896495
 20
34.020439
 30
0.0
 40
0.075
  1
0.40
 50
90.0
  7
ROMANC
 72
     1
 11
287.858995
 21
34.145439
 31
0.0
 73
     2
  0
POINT
  8
DEFPOINTS
  6
BYBLOCK
 62
     0
 10
287.060604
 20
34.345439
 30
0.0
  0
POINT
  8
DEFPOINTS
  6
BYBLOCK
 62
     0
 10
286.085604
 20
33.945439
 30
0.0
  0
POINT
  8
DEFPOINTS
  6
BYBLOCK
 62
     0
 10
287.933995
 20
33.945439
 30
0.0
  0
ENDBLK
  8
0
  0
ENDSEC
  0
SECTION
  2
ENTITIES
  0
POLYLINE
  8
0
 66
     1
 10
0.0
 20
0.0
 30
0.0
  0
VERTEX
  8
0
 10
108.040631
 20
-16.548467
 30
0.0
 42
0.063415
  0
SEQEND
  8
0
  0
POLYLINE
  8
0
 66
     1
 10
0.0
 20
0.0
 30
0.0
  0
VERTEX
  8
0
 10
86.286488
 20
-15.036857
 30
0.0
 42
0.22708
  0
SEQEND
  8
0
  0
POLYLINE
  8
0
 66
     1
 10
0.0
 20
0.0
 30
0.0
  0
VERTEX
  8
0
 10
72.351426
 20
-14.976331
 30
0.0
 42
0.089446
  0
SEQEND
  8
0
  0
POLYLINE
  8
0
 66
     1
 10
0.0
 20
0.0
 30
0.0
  0
VERTEX
  8
0
 10
97.210524
 20
16.938509
 30
0.0
 42
0.05817
  0
SEQEND
  8
0
  0
POLYLINE
  8
0
 66
     1
 10
0.0
 20
0.0
 30
0.0
  0
VERTEX
  8
0
 10
121.196188
 20
17.602271
 30
0.0
 42
0.156162
  0
SEQEND
  8
0
  0
POLYLINE
  8
0
 66
     1
 10
0.0
 20
0.0
 30
0.0
  0
VERTEX
  8
0
 10
119.340696
 20
34.532686
 30
0.0
 42
0.283046
  0
SEQEND
  8
0
  0
POLYLINE
  8
0
 66
     1
 10
0.0
 20
0.0
 30
0.0
  0
VERTEX
  8
0
 10
157.359637
 20
32.54887
 30
0.0
 42
0.269827
  0
SEQEND
  8
0
  0
POLYLINE
  8
0
 66
     1
 10
0.0
 20
0.0
 30
0.0
  0
VERTEX
  8
0
 10
156.169702
 20
18.299763
 30
0.0
 42
0.066056
  0
SEQEND
  8
0
  0
POLYLINE
  8
0
 66
     1
 10
0.0
 20
0.0
 30
0.0
  0
VERTEX
  8
0
 10
168.512554
 20
1.430566
 30
0.0
 42
0.148501
  0
SEQEND
  8
0
  0
POLYLINE
  8
0
 66
     1
 10
0.0
 20
0.0
 30
0.0
  0
VERTEX
  8
0
 10
168.689549
 20
33.579487
 30
0.0
 42
0.08626
  0
SEQEND
  8
0
  0
POLYLINE
  8
0
 66
     1
 10
0.0
 20
0.0
 30
0.0
  0
VERTEX
  8
0
 10
180.209617
 20
34.197499
 30
0.0
 42
0.059446
  0
SEQEND
  8
0
  0
POLYLINE
  8
0
 66
     1
 10
0.0
 20
0.0
 30
0.0
  0
VERTEX
  8
0
 10
168.213495
 20
14.734069
 30
0.0
 42
0.06661
  0
SEQEND
  8
0
  0
POLYLINE
  8
0
 66
     1
 10
0.0
 20
0.0
 30
0.0
  0
VERTEX
  8
0
 10
180.09759
 20
16.643931
 30
0.0
 42
0.165716
  0
SEQEND
  8
0
  0
POLYLINE
  8
0
 66
     1
 10
0.0
 20
0.0
 30
0.0
  0
VERTEX
  8
0
 10
180.349774
 20
-12.199421
 30
0.0
 42
0.098491
  0
SEQEND
  8
0
  0
POLYLINE
  8
0
 66
     1
 10
0.0
 20
0.0
 30
0.0
  0
VERTEX
  8
0
 10
194.593929
 20
-14.402211
 30
0.0
 42
0.098491
  0
SEQEND
  8
0
  0
POLYLINE
  8
0
 66
     1
 10
0.0
 20
0.0
 30
0.0
  0
VERTEX
  8
0
 10
192.091391
 20
16.821986
 30
0.0
 42
0.129253
  0
SEQEND
  8
0
  0
LINE
  8
0
 10
291.895795
 20
29.897444
 30
0.0
 11
291.895795
 21
44.747444
 31
0.0
  0
TEXT
  8
0
 10
283.887846
 20
40.56142
 30
0.0
 40
0.3
  1
P = 96.5 dm
  7
ROMANC
  0
LINE
  8
0
 10
281.395795
 20
44.747444
 30
0.0
 11
281.395795
 21
29.897444
 31
0.0
  0
LINE
  8
0
 10
281.395795
 20
29.897444
 30
0.0
 11
291.895795
 21
29.897444
 31
0.0
  0
LINE
  8
0
 10
291.895795
 20
44.747444
 30
0.0
 11
281.395795
 21
44.747444
 31
0.0
  0
TEXT
  8
0
 10
287.122271
 20
41.564915
 30
0.0
 40
0.1
  1
2
  7
ROMANC
  0
TEXT
  8
0
 10
283.925768
 20
41.857589
 30
0.0
 40
0.3
  1
ESCALA  1:50
  7
ROMANC
  0
TEXT
  8
0
 10
283.925768
 20
42.343303
 30
0.0
 40
0.3
  1
TIPUS   NT568
  7
ROMANC
  0
TEXT
  8
0
 10
283.938862
 20
41.258999
 30
0.0
 40
0.3
  1
S=  577 dm
  7
ROMANC
  0
POLYLINE
  8
0
 66
     1
 10
0.0
 20
0.0
 30
0.0
  0
VERTEX
  8
0
 10
285.562002
 20
36.153868
 30
0.0
 42
0.113017
  0
SEQEND
  8
0
  0
POLYLINE
  8
0
 66
     1
 10
0.0
 20
0.0
 30
0.0
  0
VERTEX
  8
0
 10
285.562002
 20
36.153868
 30
0.0
 42
0.098491
  0
SEQEND
  8
0
  0
POLYLINE
  8
0
 66
     1
 10
0.0
 20
0.0
 30
0.0
  0
VERTEX
  8
0
 10
284.801631
 20
36.566408
 30
0.0
 42
0.13263
  0
SEQEND
  8
0
  0
POLYLINE
  8
0
 66
     1
 10
0.0
 20
0.0
 30
0.0
  0
VERTEX
  8
0
 10
285.110604
 20
36.445439
 30
0.0
 42
0.051099
  0
SEQEND
  8
0
  0
POLYLINE
  8
0
 66
     1
 10
0.0
 20
0.0
 30
0.0
  0
VERTEX
  8
0
 10
285.110604
 20
36.445439
 30
0.0
 42
0.100831
  0
SEQEND
  8
0
  0
LINE
  8
0
  6
BYBLOCK
 62
     0
 10
285.110604
 20
34.330439
 30
0.0
 11
285.110604
 21
33.452701
 31
0.0
  0
LINE
  8
0
  6
BYBLOCK
 62
     0
 10
285.735604
 20
34.330439
 30
0.0
 11
285.735604
 21
33.452701
 31
0.0
  0
LINE
  8
0
  6
BYBLOCK
 62
     0
 10
284.960604
 20
33.467701
 30
0.0
 11
284.810604
 21
33.467701
 31
0.0
  0
LINE
  8
0
  6
BYBLOCK
 62
     0
 10
285.885604
 20
33.467701
 30
0.0
 11
286.035604
 21
33.467701
 31
0.0
  0
SOLID
  8
0
  6
BYBLOCK
 62
     0
 10
284.960604
 20
33.492701
 30
0.0
 11
284.960604
 21
33.442701
 31
0.0
 12
285.110604
 22
33.467701
 32
0.0
 13
285.110604
 23
33.467701
 33
0.0
  0
SOLID
  8
0
  6
BYBLOCK
 62
     0
 10
285.885604
 20
33.492701
 30
0.0
 11
285.885604
 21
33.442701
 31
0.0
 12
285.735604
 22
33.467701
 32
0.0
 13
285.735604
 23
33.467701
 33
0.0
  0
LINE
  8
0
  6
BYBLOCK
 62
     0
 10
285.110604
 20
33.467701
 30
0.0
 11
285.735604
 21
33.467701
 31
0.0
  0
TEXT
  8
0
  6
BYBLOCK
 62
     0
 10
285.298104
 20
33.505201
 30
0.0
 40
0.075
  1
0.63
  7
ROMANC
 72
     1
 11
285.423104
 21
33.542701
 31
0.0
 73
     2
  0
POINT
  8
DEFPOINTS
  6
BYBLOCK
 62
     0
 10
285.110604
 20
34.345439
 30
0.0
  0
POINT
  8
DEFPOINTS
  6
BYBLOCK
 62
     0
 10
285.735604
 20
34.345439
 30
0.0
  0
POINT
  8
DEFPOINTS
  6
BYBLOCK
 62
     0
 10
285.735604
 20
33.467701
 30
0.0
  0
LINE
  8
0
 10
287.050604
 20
34.355439
 30
0.0
 11
287.050604
 21
36.445439
 31
0.0
  0
ARC
  8
0
 10
286.134395
 20
36.445439
 30
0.0
 40
0.916209
 50
0.0
 51
23.03102
  0
ARC
  8
0
 10
286.110686
 20
36.43536
 30
0.0
 40
0.941972
 50
23.03102
 51
45.744059
  0
ARC
  8
0
 10
286.09545
 20
36.419724
 30
0.0
 40
0.963803
 50
45.744059
 51
68.021357
  0
ARC
  8
0
 10
286.085604
 20
36.395327
 30
0.0
 40
0.990111
 50
68.021357
 51
90.0
  0
ARC
  8
0
 10
286.085604
 20
36.395327
 30
0.0
 40
0.990111
 50
90.0
 51
111.978643
  0
ARC
  8
0
 10
286.075758
 20
36.419724
 30
0.0
 40
0.963803
 50
111.978643
 51
134.255941
  0
ARC
  8
0
 10
286.060523
 20
36.43536
 30
0.0
 40
0.941972
 50
134.255941
 51
156.96898
  0
ARC
  8
0
 10
286.036814
 20
36.445439
 30
0.0
 40
0.916209
 50
156.96898
 51
180.0
  0
LINE
  8
0
 10
285.120604
 20
36.445439
 30
0.0
 11
285.120604
 21
34.355439
 31
0.0
  0
LINE
  8
0
 10
285.120604
 20
34.355439
 30
0.0
 11
285.745716
 21
34.355439
 31
0.0
  0
ARC
  8
0
 10
286.191745
 20
34.345439
 30
0.0
 40
0.446141
 50
178.71564
 51
199.922383
  0
ARC
  8
0
 10
286.139884
 20
34.326642
 30
0.0
 40
0.390978
 50
199.922383
 51
221.185925
  0
ARC
  8
0
 10
286.106804
 20
34.297697
 30
0.0
 40
0.347023
 50
221.185925
 51
244.667737
  0
ARC
  8
0
 10
286.085604
 20
34.252914
 30
0.0
 40
0.297475
 50
244.667737
 51
270.0
  0
ARC
  8
0
 10
286.085604
 20
34.252914
 30
0.0
 40
0.297475
 50
270.0
 51
295.332263
  0
ARC
  8
0
 10
286.064404
 20
34.297697
 30
0.0
 40
0.347023
 50
295.332263
 51
318.814075
  0
ARC
  8
0
 10
286.031325
 20
34.326642
 30
0.0
 40
0.390978
 50
318.814075
 51
340.077617
  0
ARC
  8
0
 10
285.979463
 20
34.345439
 30
0.0
 40
0.446141
 50
340.077617
 51
1.28436
  0
LINE
  8
0
 10
286.425492
 20
34.355439
 30
0.0
 11
287.050604
 21
34.355439
 31
0.0
  0
LINE
  8
0
 10
287.070604
 20
34.335439
 30
0.0
 11
287.070604
 21
36.445439
 31
0.0
  0
ARC
  8
0
 10
286.134395
 20
36.445439
 30
0.0
 40
0.936209
 50
360.0
 51
23.03102
  0
ARC
  8
0
 10
286.110686
 20
36.43536
 30
0.0
 40
0.961972
 50
23.03102
 51
45.744059
  0
ARC
  8
0
 10
286.09545
 20
36.419724
 30
0.0
 40
0.983803
 50
45.744059
 51
68.021357
  0
ARC
  8
0
 10
286.085604
 20
36.395327
 30
0.0
 40
1.010111
 50
68.021357
 51
90.0
  0
ARC
  8
0
 10
286.085604
 20
36.395327
 30
0.0
 40
1.010111
 50
90.0
 51
111.978643
  0
ARC
  8
0
 10
286.075758
 20
36.419724
 30
0.0
 40
0.983803
 50
111.978643
 51
134.255941
  0
ARC
  8
0
 10
286.060523
 20
36.43536
 30
0.0
 40
0.961972
 50
134.255941
 51
156.96898
  0
ARC
  8
0
 10
286.036814
 20
36.445439
 30
0.0
 40
0.936209
 50
156.96898
 51
180.0
  0
LINE
  8
0
 10
285.100604
 20
36.445439
 30
0.0
 11
285.100604
 21
34.335439
 31
0.0
  0
LINE
  8
0
 10
285.100604
 20
34.335439
 30
0.0
 11
285.725711
 21
34.335439
 31
0.0
  0
ARC
  8
0
 10
286.191745
 20
34.345439
 30
0.0
 40
0.466141
 50
181.229245
 51
199.922383
  0
ARC
  8
0
 10
286.139884
 20
34.326642
 30
0.0
 40
0.410978
 50
199.922383
 51
221.185925
  0
ARC
  8
0
 10
286.106804
 20
34.297697
 30
0.0
 40
0.367023
 50
221.185925
 51
244.667737
  0
ARC
  8
0
 10
286.085604
 20
34.252914
 30
0.0
 40
0.317475
 50
244.667737
 51
270.0
  0
ARC
  8
0
 10
286.085604
 20
34.252914
 30
0.0
 40
0.317475
 50
270.0
 51
295.332263
  0
ARC
  8
0
 10
286.064404
 20
34.297697
 30
0.0
 40
0.367023
 50
295.332263
 51
318.814075
  0
ARC
  8
0
 10
286.031325
 20
34.326642
 30
0.0
 40
0.410978
 50
318.814075
 51
340.077617
  0
ARC
  8
0
 10
285.979463
 20
34.345439
 30
0.0
 40
0.466141
 50
340.077617
 51
358.770755
  0
LINE
  8
0
 10
286.445497
 20
34.335439
 30
0.0
 11
287.070604
 21
34.335439
 31
0.0
  0
LINE
  8
0
 10
287.060604
 20
34.345439
 30
0.0
 11
287.060604
 21
36.445439
 31
0.0
  0
ARC
  8
0
 10
286.134395
 20
36.445439
 30
0.0
 40
0.926209
 50
0.0
 51
23.03102
  0
ARC
  8
0
 10
286.110686
 20
36.43536
 30
0.0
 40
0.951972
 50
23.03102
 51
45.744059
  0
ARC
  8
0
 10
286.09545
 20
36.419724
 30
0.0
 40
0.973803
 50
45.744059
 51
68.021357
  0
ARC
  8
0
 10
286.085604
 20
36.395327
 30
0.0
 40
1.000111
 50
68.021357
 51
90.0
  0
ARC
  8
0
 10
286.085604
 20
36.395327
 30
0.0
 40
1.000111
 50
90.0
 51
111.978643
  0
ARC
  8
0
 10
286.075758
 20
36.419724
 30
0.0
 40
0.973803
 50
111.978643
 51
134.255941
  0
ARC
  8
0
 10
286.060523
 20
36.43536
 30
0.0
 40
0.951972
 50
134.255941
 51
156.96898
  0
ARC
  8
0
 10
286.036814
 20
36.445439
 30
0.0
 40
0.926209
 50
156.96898
 51
180.0
  0
LINE
  8
0
 10
285.110604
 20
36.445439
 30
0.0
 11
285.110604
 21
34.345439
 31
0.0
  0
LINE
  8
0
 10
285.110604
 20
34.345439
 30
0.0
 11
285.735604
 21
34.345439
 31
0.0
  0
ARC
  8
0
 10
286.191745
 20
34.345439
 30
0.0
 40
0.456141
 50
180.0
 51
199.922383
  0
ARC
  8
0
 10
286.139884
 20
34.326642
 30
0.0
 40
0.400978
 50
199.922383
 51
221.185925
  0
ARC
  8
0
 10
286.106804
 20
34.297697
 30
0.0
 40
0.357023
 50
221.185925
 51
244.667737
  0
ARC
  8
0
 10
286.085604
 20
34.252914
 30
0.0
 40
0.307475
 50
244.667737
 51
270.0
  0
ARC
  8
0
 10
286.085604
 20
34.252914
 30
0.0
 40
0.307475
 50
270.0
 51
295.332263
  0
ARC
  8
0
 10
286.064404
 20
34.297697
 30
0.0
 40
0.357023
 50
295.332263
 51
318.814075
  0
ARC
  8
0
 10
286.031325
 20
34.326642
 30
0.0
 40
0.400978
 50
318.814075
 51
340.077617
  0
ARC
  8
0
 10
285.979463
 20
34.345439
 30
0.0
 40
0.456141
 50
340.077617
 51
0.0
  0
LINE
  8
0
 10
286.435604
 20
34.345439
 30
0.0
 11
287.060604
 21
34.345439
 31
0.0
  0
LINE
  8
0
  6
BYBLOCK
 62
     0
 10
286.100604
 20
37.395439
 30
0.0
 11
287.948995
 21
37.395439
 31
0.0
  0
LINE
  8
0
  6
BYBLOCK
 62
     0
 10
287.060604
 20
36.445439
 30
0.0
 11
287.948995
 21
36.445439
 31
0.0
  0
LINE
  8
0
  6
BYBLOCK
 62
     0
 10
287.933995
 20
37.245439
 30
0.0
 11
287.933995
 21
36.595439
 31
0.0
  0
SOLID
  8
0
  6
BYBLOCK
 62
     0
 10
287.908995
 20
37.245439
 30
0.0
 11
287.958995
 21
37.245439
 31
0.0
 12
287.933995
 22
37.395439
 32
0.0
 13
287.933995
 23
37.395439
 33
0.0
  0
SOLID
  8
0
  6
BYBLOCK
 62
     0
 10
287.908995
 20
36.595439
 30
0.0
 11
287.958995
 21
36.595439
 31
0.0
 12
287.933995
 22
36.445439
 32
0.0
 13
287.933995
 23
36.445439
 33
0.0
  0
TEXT
  8
0
  6
BYBLOCK
 62
     0
 10
287.896495
 20
36.795439
 30
0.0
 40
0.075
  1
0.95
 50
90.0
  7
ROMANC
 72
     1
 11
287.858995
 21
36.920439
 31
0.0
 73
     2
  0
POINT
  8
DEFPOINTS
  6
BYBLOCK
 62
     0
 10
286.085604
 20
37.395439
 30
0.0
  0
POINT
  8
DEFPOINTS
  6
BYBLOCK
 62
     0
 10
287.933995
 20
36.445439
 30
0.0
  0
LINE
  8
0
  6
BYBLOCK
 62
     0
 10
286.100604
 20
37.395439
 30
0.0
 11
288.570407
 21
37.395439
 31
0.0
  0
LINE
  8
0
  6
BYBLOCK
 62
     0
 10
286.100604
 20
33.945439
 30
0.0
 11
288.570407
 21
33.945439
 31
0.0
  0
LINE
  8
0
  6
BYBLOCK
 62
     0
 10
288.555407
 20
37.245439
 30
0.0
 11
288.555407
 21
34.095439
 31
0.0
  0
SOLID
  8
0
  6
BYBLOCK
 62
     0
 10
288.530407
 20
37.245439
 30
0.0
 11
288.580407
 21
37.245439
 31
0.0
 12
288.555407
 22
37.395439
 32
0.0
 13
288.555407
 23
37.395439
 33
0.0
  0
SOLID
  8
0
  6
BYBLOCK
 62
     0
 10
288.530407
 20
34.095439
 30
0.0
 11
288.580407
 21
34.095439
 31
0.0
 12
288.555407
 22
33.945439
 32
0.0
 13
288.555407
 23
33.945439
 33
0.0
  0
TEXT
  8
0
  6
BYBLOCK
 62
     0
 10
288.517907
 20
35.545439
 30
0.0
 40
0.075
  1
3.45
 50
90.0
  7
ROMANC
 72
     1
 11
288.480407
 21
35.670439
 31
0.0
 73
     2
  0
POINT
  8
DEFPOINTS
  6
BYBLOCK
 62
     0
 10
286.085604
 20
37.395439
 30
0.0
  0
POINT
  8
DEFPOINTS
  6
BYBLOCK
 62
     0
 10
286.085604
 20
33.945439
 30
0.0
  0
POINT
  8
DEFPOINTS
  6
BYBLOCK
 62
     0
 10
288.555407
 20
33.945439
 30
0.0
  0
LINE
  8
0
  6
BYBLOCK
 62
     0
 10
287.075604
 20
34.345439
 30
0.0
 11
287.948995
 21
34.345439
 31
0.0
  0
LINE
  8
0
  6
BYBLOCK
 62
     0
 10
286.100604
 20
33.945439
 30
0.0
 11
287.948995
 21
33.945439
 31
0.0
  0
LINE
  8
0
  6
BYBLOCK
 62
     0
 10
287.933995
 20
34.495439
 30
0.0
 11
287.933995
 21
34.645439
 31
0.0
  0
LINE
  8
0
  6
BYBLOCK
 62
     0
 10
287.933995
 20
33.795439
 30
0.0
 11
287.933995
 21
33.645439
 31
0.0
  0
SOLID
  8
0
  6
BYBLOCK
 62
     0
 10
287.908995
 20
34.495439
 30
0.0
 11
287.958995
 21
34.495439
 31
0.0
 12
287.933995
 22
34.345439
 32
0.0
 13
287.933995
 23
34.345439
 33
0.0
  0
SOLID
  8
0
  6
BYBLOCK
 62
     0
 10
287.908995
 20
33.795439
 30
0.0
 11
287.958995
 21
33.795439
 31
0.0
 12
287.933995
 22
33.945439
 32
0.0
 13
287.933995
 23
33.945439
 33
0.0
  0
LINE
  8
0
  6
BYBLOCK
 62
     0
 10
287.933995
 20
34.345439
 30
0.0
 11
287.933995
 21
33.945439
 31
0.0
  0
TEXT
  8
0
  6
BYBLOCK
 62
     0
 10
287.896495
 20
34.020439
 30
0.0
 40
0.075
  1
0.40
 50
90.0
  7
ROMANC
 72
     1
 11
287.858995
 21
34.145439
 31
0.0
 73
     2
  0
POINT
  8
DEFPOINTS
  6
BYBLOCK
 62
     0
 10
287.060604
 20
34.345439
 30
0.0
  0
POINT
  8
DEFPOINTS
  6
BYBLOCK
 62
     0
 10
286.085604
 20
33.945439
 30
0.0
  0
POINT
  8
DEFPOINTS
  6
BYBLOCK
 62
     0
 10
287.933995
 20
33.945439
 30
0.0
  0
LINE
  8
0
  6
BYBLOCK
 62
     0
 10
287.060604
 20
36.445439
 30
0.0
 11
287.948995
 21
36.445439
 31
0.0
  0
LINE
  8
0
  6
BYBLOCK
 62
     0
 10
287.075604
 20
34.345439
 30
0.0
 11
287.948995
 21
34.345439
 31
0.0
  0
LINE
  8
0
  6
BYBLOCK
 62
     0
 10
287.933995
 20
36.295439
 30
0.0
 11
287.933995
 21
34.495439
 31
0.0
  0
SOLID
  8
0
  6
BYBLOCK
 62
     0
 10
287.908995
 20
36.295439
 30
0.0
 11
287.958995
 21
36.295439
 31
0.0
 12
287.933995
 22
36.445439
 32
0.0
 13
287.933995
 23
36.445439
 33
0.0
  0
SOLID
  8
0
  6
BYBLOCK
 62
     0
 10
287.908995
 20
34.495439
 30
0.0
 11
287.958995
 21
34.495439
 31
0.0
 12
287.933995
 22
34.345439
 32
0.0
 13
287.933995
 23
34.345439
 33
0.0
  0
TEXT
  8
0
  6
BYBLOCK
 62
     0
 10
287.896495
 20
35.270439
 30
0.0
 40
0.075
  1
2.10
 50
90.0
  7
ROMANC
 72
     1
 11
287.858995
 21
35.395439
 31
0.0
 73
     2
  0
POINT
  8
DEFPOINTS
  6
BYBLOCK
 62
     0
 10
287.060604
 20
34.345439
 30
0.0
  0
POINT
  8
DEFPOINTS
  6
BYBLOCK
 62
     0
 10
287.933995
 20
34.345439
 30
0.0
  0
LINE
  8
0
  6
BYBLOCK
 62
     0
 10
286.435604
 20
34.330439
 30
0.0
 11
286.435604
 21
33.452701
 31
0.0
  0
LINE
  8
0
  6
BYBLOCK
 62
     0
 10
287.060604
 20
34.330439
 30
0.0
 11
287.060604
 21
33.452701
 31
0.0
  0
LINE
  8
0
  6
BYBLOCK
 62
     0
 10
286.285604
 20
33.467701
 30
0.0
 11
286.135604
 21
33.467701
 31
0.0
  0
LINE
  8
0
  6
BYBLOCK
 62
     0
 10
287.210604
 20
33.467701
 30
0.0
 11
287.360604
 21
33.467701
 31
0.0
  0
SOLID
  8
0
  6
BYBLOCK
 62
     0
 10
286.285604
 20
33.492701
 30
0.0
 11
286.285604
 21
33.442701
 31
0.0
 12
286.435604
 22
33.467701
 32
0.0
 13
286.435604
 23
33.467701
 33
0.0
  0
SOLID
  8
0
  6
BYBLOCK
 62
     0
 10
287.210604
 20
33.492701
 30
0.0
 11
287.210604
 21
33.442701
 31
0.0
 12
287.060604
 22
33.467701
 32
0.0
 13
287.060604
 23
33.467701
 33
0.0
  0
LINE
  8
0
  6
BYBLOCK
 62
     0
 10
286.435604
 20
33.467701
 30
0.0
 11
287.060604
 21
33.467701
 31
0.0
  0
TEXT
  8
0
  6
BYBLOCK
 62
     0
 10
286.623104
 20
33.505201
 30
0.0
 40
0.075
  1
0.62
  7
ROMANC
 72
     1
 11
286.748104
 21
33.542701
 31
0.0
 73
     2
  0
POINT
  8
DEFPOINTS
  6
BYBLOCK
 62
     0
 10
286.435604
 20
34.345439
 30
0.0
  0
POINT
  8
DEFPOINTS
  6
BYBLOCK
 62
     0
 10
287.060604
 20
34.345439
 30
0.0
  0
POINT
  8
DEFPOINTS
  6
BYBLOCK
 62
     0
 10
287.060604
 20
33.467701
 30
0.0
  0
LINE
  8
0
  6
BYBLOCK
 62
     0
 10
285.735604
 20
34.330439
 30
0.0
 11
285.735604
 21
33.452701
 31
0.0
  0
LINE
  8
0
  6
BYBLOCK
 62
     0
 10
286.435604
 20
34.330439
 30
0.0
 11
286.435604
 21
33.452701
 31
0.0
  0
LINE
  8
0
  6
BYBLOCK
 62
     0
 10
285.585604
 20
33.467701
 30
0.0
 11
285.435604
 21
33.467701
 31
0.0
  0
LINE
  8
0
  6
BYBLOCK
 62
     0
 10
286.585604
 20
33.467701
 30
0.0
 11
286.735604
 21
33.467701
 31
0.0
  0
SOLID
  8
0
  6
BYBLOCK
 62
     0
 10
285.585604
 20
33.492701
 30
0.0
 11
285.585604
 21
33.442701
 31
0.0
 12
285.735604
 22
33.467701
 32
0.0
 13
285.735604
 23
33.467701
 33
0.0
  0
SOLID
  8
0
  6
BYBLOCK
 62
     0
 10
286.585604
 20
33.492701
 30
0.0
 11
286.585604
 21
33.442701
 31
0.0
 12
286.435604
 22
33.467701
 32
0.0
 13
286.435604
 23
33.467701
 33
0.0
  0
LINE
  8
0
  6
BYBLOCK
 62
     0
 10
285.735604
 20
33.467701
 30
0.0
 11
286.435604
 21
33.467701
 31
0.0
  0
TEXT
  8
0
  6
BYBLOCK
 62
     0
 10
285.960604
 20
33.505201
 30
0.0
 40
0.075
  1
0.70
  7
ROMANC
 72
     1
 11
286.085604
 21
33.542701
 31
0.0
 73
     2
  0
POINT
  8
DEFPOINTS
  6
BYBLOCK
 62
     0
 10
285.735604
 20
34.345439
 30
0.0
  0
POINT
  8
DEFPOINTS
  6
BYBLOCK
 62
     0
 10
286.435604
 20
34.345439
 30
0.0
  0
POINT
  8
DEFPOINTS
  6
BYBLOCK
 62
     0
 10
286.435604
 20
33.467701
 30
0.0
  0
LINE
  8
0
  6
BYBLOCK
 62
     0
 10
285.110604
 20
34.330439
 30
0.0
 11
285.110604
 21
32.195401
 31
0.0
  0
LINE
  8
0
  6
BYBLOCK
 62
     0
 10
287.060604
 20
34.330439
 30
0.0
 11
287.060604
 21
32.195401
 31
0.0
  0
LINE
  8
0
  6
BYBLOCK
 62
     0
 10
285.260604
 20
32.210401
 30
0.0
 11
286.910604
 21
32.210401
 31
0.0
  0
SOLID
  8
0
  6
BYBLOCK
 62
     0
 10
285.260604
 20
32.235401
 30
0.0
 11
285.260604
 21
32.185401
 31
0.0
 12
285.110604
 22
32.210401
 32
0.0
 13
285.110604
 23
32.210401
 33
0.0
  0
SOLID
  8
0
  6
BYBLOCK
 62
     0
 10
286.910604
 20
32.235401
 30
0.0
 11
286.910604
 21
32.185401
 31
0.0
 12
287.060604
 22
32.210401
 32
0.0
 13
287.060604
 23
32.210401
 33
0.0
  0
TEXT
  8
0
  6
BYBLOCK
 62
     0
 10
285.955247
 20
32.247901
 30
0.0
 40
0.075
  1
1.95
  7
ROMANC
 72
     1
 11
286.085604
 21
32.285401
 31
0.0
 73
     2
  0
POINT
  8
DEFPOINTS
  6
BYBLOCK
 62
     0
 10
285.110604
 20
34.345439
 30
0.0
  0
POINT
  8
DEFPOINTS
  6
BYBLOCK
 62
     0
 10
287.060604
 20
34.345439
 30
0.0
  0
POINT
  8
DEFPOINTS
  6
BYBLOCK
 62
     0
 10
287.060604
 20
32.210401
 30
0.0
  0
ENDSEC
  0
EOF
