  0
SECTION
  2
HEADER
  9
$ACADVER
  1
AC1009
  9
$INSBASE
 10
0.0
 20
0.0
 30
0.0
  9
$EXTMIN
 10
281.396
 20
29.897
 30
0.0
  9
$EXTMAX
 10
291.896
 20
44.747
 30
0.0
  9
$LIMMIN
 10
280.396
 20
28.897
  9
$LIMMAX
 10
292.896
 20
43.747
  9
$ORTHOMODE
 70
     0
  9
$REGENMODE
 70
     1
  9
$FILLMODE
 70
     1
  9
$QTEXTMODE
 70
     0
  9
$MIRRTEXT
 70
     1
  9
$DRAGMODE
 70
     2
  9
$LTSCALE
 40
1.0
  9
$OSMODE
 70
     0
  9
$ATTMODE
 70
     1
  9
$TEXTSIZE
 40
0.2
  9
$TRACEWID
 40
0.05
  9
$TEXTSTYLE
  7
STANDARD
  9
$CLAYER
  8
0
  9
$CELTYPE
  6
BYLAYER
  9
$CECOLOR
 62
   256
  9
$DIMSCALE
 40
1.0
  9
$DIMASZ
 40
0.18
  9
$DIMEXO
 40
0.0625
  9
$DIMDLI
 40
0.38
  9
$DIMRND
 40
0.0
  9
$DIMDLE
 40
0.0
  9
$DIMEXE
 40
0.18
  9
$DIMTP
 40
0.0
  9
$DIMTM
 40
0.0
  9
$DIMTXT
 40
0.18
  9
$DIMCEN
 40
0.09
  9
$DIMTSZ
 40
0.0
  9
$DIMTOL
 70
     0
  9
$DIMLIM
 70
     0
  9
$DIMTIH
 70
     1
  9
$DIMTOH
 70
     1
  9
$DIMSE1
 70
     0
  9
$DIMSE2
 70
     0
  9
$DIMTAD
 70
     0
  9
$DIMZIN
 70
     0
  9
$DIMBLK
  1

  9
$DIMASO
 70
     1
  9
$DIMSHO
 70
     1
  9
$DIMPOST
  1

  9
$DIMAPOST
  1

  9
$DIMALT
 70
     0
  9
$DIMALTD
 70
     2
  9
$DIMALTF
 40
25.4
  9
$DIMLFAC
 40
1.0
  9
$DIMTOFL
 70
     0
  9
$DIMTVP
 40
0.0
  9
$DIMTIX
 70
     0
  9
$DIMSOXD
 70
     0
  9
$DIMSAH
 70
     0
  9
$DIMBLK1
  1

  9
$DIMBLK2
  1

  9
$DIMSTYLE
  2
*UNNAMED
  9
$DIMCLRD
 70
     0
  9
$DIMCLRE
 70
     0
  9
$DIMCLRT
 70
     0
  9
$DIMTFAC
 40
1.0
  9
$DIMGAP
 40
0.09
  9
$LUNITS
 70
     2
  9
$LUPREC
 70
     4
  9
$SKETCHINC
 40
0.1
  9
$FILLETRAD
 40
0.0
  9
$AUNITS
 70
     0
  9
$AUPREC
 70
     0
  9
$MENU
  1
acad
  9
$ELEVATION
 40
0.0
  9
$PELEVATION
 40
0.0
  9
$THICKNESS
 40
0.0
  9
$LIMCHECK
 70
     0
  9
$BLIPMODE
 70
     1
  9
$CHAMFERA
 40
0.0
  9
$CHAMFERB
 40
0.0
  9
$SKPOLY
 70
     0
  9
$TDCREATE
 40
2448315.373408102
  9
$TDUPDATE
 40
2448315.373408102
  9
$TDINDWG
 40
0.0000000000
  9
$TDUSRTIMER
 40
0.0000000000
  9
$USRTIMER
 70
     1
  9
$ANGBASE
 50
0.0
  9
$ANGDIR
 70
     0
  9
$PDMODE
 70
     0
  9
$PDSIZE
 40
0.0
  9
$PLINEWID
 40
0.0
  9
$COORDS
 70
     0
  9
$SPLFRAME
 70
     0
  9
$SPLINETYPE
 70
     6
  9
$SPLINESEGS
 70
     8
  9
$ATTDIA
 70
     0
  9
$ATTREQ
 70
     1
  9
$HANDLING
 70
     0
  9
$HANDSEED
  5
0
  9
$SURFTAB1
 70
     6
  9
$SURFTAB2
 70
     6
  9
$SURFTYPE
 70
     6
  9
$SURFU
 70
     6
  9
$SURFV
 70
     6
  9
$UCSNAME
  2

  9
$UCSORG
 10
0.0
 20
0.0
 30
0.0
  9
$UCSXDIR
 10
1.0
 20
0.0
 30
0.0
  9
$UCSYDIR
 10
0.0
 20
1.0
 30
0.0
  9
$PUCSNAME
  2

  9
$PUCSORG
 10
0.0
 20
0.0
 30
0.0
  9
$PUCSXDIR
 10
1.0
 20
0.0
 30
0.0
  9
$PUCSYDIR
 10
0.0
 20
1.0
 30
0.0
  9
$USERI1
 70
     0
  9
$USERI2
 70
     0
  9
$USERI3
 70
     0
  9
$USERI4
 70
     0
  9
$USERI5
 70
     0
  9
$USERR1
 40
0.0
  9
$USERR2
 40
0.0
  9
$USERR3
 40
0.0
  9
$USERR4
 40
0.0
  9
$USERR5
 40
0.0
  9
$WORLDVIEW
 70
     1
  9
$SHADEDGE
 70
     3
  9
$SHADEDIF
 70
    70
  9
$TILEMODE
 70
     1
  9
$MAXACTVP
 70
    16
  9
$PINSBASE
 10
0.0
 20
0.0
 30
0.0
  9
$PLIMCHECK
 70
     0
  9
$PEXTMIN
 10
1.000000E+20
 20
1.000000E+20
 30
1.000000E+20
  9
$PEXTMAX
 10
-1.000000E+20
 20
-1.000000E+20
 30
-1.000000E+20
  9
$PLIMMIN
 10
0.0
 20
0.0
  9
$PLIMMAX
 10
12.0
 20
9.0
  9
$UNITMODE
 70
     0
  9
$VISRETAIN
 70
     0
  9
$PLINEGEN
 70
     0
  9
$PSLTSCALE
 70
     0
  9
$TREEDEPTH
 70
  3020
  9
$DWGCODEPAGE
  3
iso8859-1
  0
ENDSEC
  0
SECTION
  2
TABLES
  0
TABLE
  2
VPORT
 70
     2
  0
VPORT
  2
*ACTIVE
 70
     0
 10
0.0
 20
0.0
 11
1.0
 21
1.0
 12
293.163362
 22
36.822
 13
0.0
 23
0.0
 14
1.0
 24
1.0
 15
10.0
 25
10.0
 16
0.0
 26
0.0
 36
1.0
 17
0.0
 27
0.0
 37
0.0
 40
15.85
 41
1.611024
 42
50.0
 43
0.0
 44
0.0
 50
0.0
 51
0.0
 71
     0
 72
   100
 73
     1
 74
     0
 75
     0
 76
     0
 77
     0
 78
     0
  0
ENDTAB
  0
TABLE
  2
LTYPE
 70
     1
  0
LTYPE
  2
CONTINUOUS
 70
    64
  3
Solid line
 72
    65
 73
     0
 40
0.0
  0
ENDTAB
  0
TABLE
  2
LAYER
 70
     7
  0
LAYER
  2
0
 70
    64
 62
     7
  6
CONTINUOUS
  0
LAYER
  2
1
 70
    64
 62
     7
  6
CONTINUOUS
  0
LAYER
  2
7
 70
    64
 62
     7
  6
CONTINUOUS
  0
LAYER
  2
8
 70
    64
 62
     7
  6
CONTINUOUS
  0
LAYER
  2
9
 70
    64
 62
     7
  6
CONTINUOUS
  0
LAYER
  2
22
 70
    64
 62
     7
  6
CONTINUOUS
  0
LAYER
  2
25
 70
    64
 62
     7
  6
CONTINUOUS
  0
ENDTAB
  0
TABLE
  2
STYLE
 70
     2
  0
STYLE
  2
STANDARD
 70
     0
 40
0.0
 41
1.0
 50
0.0
 71
     0
 42
3.5
  3
txt
  4

  0
STYLE
  2
ROMANC
 70
     0
 40
0.0
 41
1.0
 50
0.0
 71
     0
 42
0.2
  3
ROMANC
  4

  0
ENDTAB
  0
TABLE
  2
VIEW
 70
     0
  0
ENDTAB
  0
TABLE
  2
UCS
 70
     0
  0
ENDTAB
  0
TABLE
  2
APPID
 70
     1
  0
APPID
  2
ACAD
 70
    64
  0
ENDTAB
  0
TABLE
  2
DIMSTYLE
 70
     0
  0
ENDTAB
  0
ENDSEC
  0
SECTION
  2
BLOCKS
  0
ENDSEC
  0
SECTION
  2
ENTITIES
  0
TEXT
  8
0
  6
CONTINUOUS
 10
286.909
 20
41.324
 30
0.0
 40
0.1
  1
2
  7
ROMANC
  0
TEXT
  8
0
  6
CONTINUOUS
 10
283.926
 20
41.768
 30
0.0
 40
0.3
  1
ESCALA  1:50
  7
ROMANC
  0
POLYLINE
  8
0
  6
CONTINUOUS
 66
     1
 10
0.0
 20
0.0
 30
0.0
 70
     1
  0
VERTEX
  8
0
  6
CONTINUOUS
 10
281.396
 20
44.747
 30
0.0
  0
VERTEX
  8
0
  6
CONTINUOUS
 10
291.896
 20
44.747
 30
0.0
  0
VERTEX
  8
0
  6
CONTINUOUS
 10
291.896
 20
29.897
 30
0.0
  0
VERTEX
  8
0
  6
CONTINUOUS
 10
281.396
 20
29.897
 30
0.0
  0
SEQEND
  8
0
  0
ARC
  8
1
  6
CONTINUOUS
 10
286.01
 20
32.800438
 30
0.0
 40
2.706562
 50
59.688606
 51
120.311392
  0
ARC
  8
1
  6
CONTINUOUS
 10
286.893055
 20
34.750622
 30
0.0
 40
0.618485
 50
355.955572
 51
38.661411
  0
LINE
  8
1
  6
CONTINUOUS
 10
287.51
 20
34.707
 30
0.0
 11
287.51
 21
33.807
 31
0.0
  0
ARC
  8
1
  6
CONTINUOUS
 10
285.485
 20
38.110125
 30
0.0
 40
4.803125
 50
258.287972
 51
281.712028
  0
ARC
  8
1
  6
CONTINUOUS
 10
285.126945
 20
34.750622
 30
0.0
 40
0.618485
 50
141.338589
 51
184.044428
  0
TEXT
  8
0
  6
CONTINUOUS
 10
283.922
 20
40.529
 30
0.0
 40
0.3
  1
P = 94 dm
  7
ROMANC
  0
TEXT
  8
0
  6
CONTINUOUS
 10
283.945
 20
41.099
 30
0.0
 40
0.3
  1
S = 555 dm
  7
ROMANC
  0
LINE
  8
1
  6
CONTINUOUS
 10
284.51
 20
33.407
 30
0.0
 11
284.51
 21
34.707
 31
0.0
  0
LINE
  8
1
  6
CONTINUOUS
 10
286.46
 20
33.807
 30
0.0
 11
286.46
 21
33.407
 31
0.0
  0
TEXT
  8
1
  6
CONTINUOUS
 10
285.375
 20
33.052
 30
0.0
 40
0.075
  1
1.95
  7
ROMANC
  0
LINE
  8
1
  6
CONTINUOUS
 10
285.337
 20
33.089
 30
0.0
 11
284.51
 21
33.089
 31
0.0
  0
LINE
  8
1
  6
CONTINUOUS
 10
285.632
 20
33.089
 30
0.0
 11
286.46
 21
33.089
 31
0.0
  0
LINE
  8
1
  6
CONTINUOUS
 10
284.472
 20
33.07
 30
0.0
 11
284.548
 21
33.108
 31
0.0
  0
LINE
  8
1
  6
CONTINUOUS
 10
286.498
 20
33.108
 30
0.0
 11
286.422
 21
33.07
 31
0.0
  0
LINE
  8
1
  6
CONTINUOUS
 10
284.51
 20
33.369
 30
0.0
 11
284.51
 21
33.051
 31
0.0
  0
LINE
  8
1
  6
CONTINUOUS
 10
286.46
 20
33.369
 30
0.0
 11
286.46
 21
33.051
 31
0.0
  0
TEXT
  8
1
  6
CONTINUOUS
 10
286.875
 20
33.052
 30
0.0
 40
0.075
  1
1.05
  7
ROMANC
  0
LINE
  8
1
  6
CONTINUOUS
 10
286.837
 20
33.089
 30
0.0
 11
286.46
 21
33.089
 31
0.0
  0
LINE
  8
1
  6
CONTINUOUS
 10
287.132
 20
33.089
 30
0.0
 11
287.51
 21
33.089
 31
0.0
  0
LINE
  8
1
  6
CONTINUOUS
 10
286.422
 20
33.07
 30
0.0
 11
286.498
 21
33.108
 31
0.0
  0
LINE
  8
1
  6
CONTINUOUS
 10
287.548
 20
33.108
 30
0.0
 11
287.472
 21
33.07
 31
0.0
  0
LINE
  8
1
  6
CONTINUOUS
 10
287.51
 20
33.769
 30
0.0
 11
287.51
 21
33.051
 31
0.0
  0
LINE
  8
1
  6
CONTINUOUS
 10
287.51
 20
33.807
 30
0.0
 11
286.46
 21
33.807
 31
0.0
  0
TEXT
  8
1
  6
CONTINUOUS
 10
285.891
 20
32.808
 30
0.0
 40
0.075
  1
3.00
  7
ROMANC
  0
LINE
  8
1
  6
CONTINUOUS
 10
285.853
 20
32.845
 30
0.0
 11
284.51
 21
32.845
 31
0.0
  0
LINE
  8
1
  6
CONTINUOUS
 10
286.165
 20
32.845
 30
0.0
 11
287.51
 21
32.845
 31
0.0
  0
LINE
  8
1
  6
CONTINUOUS
 10
284.472
 20
32.826
 30
0.0
 11
284.548
 21
32.864
 31
0.0
  0
LINE
  8
1
  6
CONTINUOUS
 10
287.548
 20
32.864
 30
0.0
 11
287.472
 21
32.826
 31
0.0
  0
LINE
  8
1
  6
CONTINUOUS
 10
284.51
 20
33.369
 30
0.0
 11
284.51
 21
32.807
 31
0.0
  0
LINE
  8
1
  6
CONTINUOUS
 10
287.51
 20
33.769
 30
0.0
 11
287.51
 21
32.807
 31
0.0
  0
TEXT
  8
1
  6
CONTINUOUS
 10
287.824
 20
33.438
 30
0.0
 40
0.075
  1
0.50
 50
90.0
  7
ROMANC
  0
LINE
  8
1
  6
CONTINUOUS
 10
287.786
 20
33.157
 30
0.0
 11
287.786
 21
33.307
 31
0.0
  0
LINE
  8
1
  6
CONTINUOUS
 10
287.786
 20
33.957
 30
0.0
 11
287.786
 21
33.807
 31
0.0
  0
LINE
  8
1
  6
CONTINUOUS
 10
287.767
 20
33.344
 30
0.0
 11
287.805
 21
33.27
 31
0.0
  0
LINE
  8
1
  6
CONTINUOUS
 10
287.805
 20
33.77
 30
0.0
 11
287.767
 21
33.844
 31
0.0
  0
LINE
  8
1
  6
CONTINUOUS
 10
285.523
 20
33.307
 30
0.0
 11
287.824
 21
33.307
 31
0.0
  0
LINE
  8
1
  6
CONTINUOUS
 10
287.548
 20
33.807
 30
0.0
 11
287.824
 21
33.807
 31
0.0
  0
TEXT
  8
1
  6
CONTINUOUS
 10
287.824
 20
34.138
 30
0.0
 40
0.075
  1
0.90
 50
90.0
  7
ROMANC
  0
LINE
  8
1
  6
CONTINUOUS
 10
287.786
 20
34.1
 30
0.0
 11
287.786
 21
33.807
 31
0.0
  0
LINE
  8
1
  6
CONTINUOUS
 10
287.786
 20
34.412
 30
0.0
 11
287.786
 21
34.913621
 31
0.0
  0
LINE
  8
1
  6
CONTINUOUS
 10
287.805
 20
33.77
 30
0.0
 11
287.767
 21
33.844
 31
0.0
  0
LINE
  8
1
  6
CONTINUOUS
 10
287.767
 20
34.744
 30
0.0
 11
287.805
 21
34.67
 31
0.0
  0
LINE
  8
1
  6
CONTINUOUS
 10
287.548
 20
34.707
 30
0.0
 11
287.824
 21
34.707
 31
0.0
  0
TEXT
  8
1
  6
CONTINUOUS
 10
288.134
 20
34.288
 30
0.0
 40
0.075
  1
2.20
 50
90.0
  7
ROMANC
  0
LINE
  8
1
  6
CONTINUOUS
 10
288.097
 20
34.25
 30
0.0
 11
288.097
 21
33.307
 31
0.0
  0
LINE
  8
1
  6
CONTINUOUS
 10
288.097
 20
34.562
 30
0.0
 11
288.097
 21
35.507
 31
0.0
  0
LINE
  8
1
  6
CONTINUOUS
 10
288.116
 20
33.27
 30
0.0
 11
288.078
 21
33.344
 31
0.0
  0
LINE
  8
1
  6
CONTINUOUS
 10
288.078
 20
35.544
 30
0.0
 11
288.116
 21
35.47
 31
0.0
  0
LINE
  8
1
  6
CONTINUOUS
 10
285.523
 20
33.307
 30
0.0
 11
288.135
 21
33.307
 31
0.0
  0
LINE
  8
1
  6
CONTINUOUS
 10
286.048
 20
35.507
 30
0.0
 11
288.135
 21
35.507
 31
0.0
  0
ARC
  8
1
  6
CONTINUOUS
 10
286.01
 20
32.800438
 30
0.0
 40
2.716562
 50
59.688606
 51
120.311392
  0
ARC
  8
1
  6
CONTINUOUS
 10
286.01
 20
32.800438
 30
0.0
 40
2.726562
 50
59.611114
 51
120.388886
  0
ARC
  8
1
  6
CONTINUOUS
 10
286.893055
 20
34.750622
 30
0.0
 40
0.628485
 50
355.955572
 51
38.661411
  0
ARC
  8
1
  6
CONTINUOUS
 10
286.893055
 20
34.750622
 30
0.0
 40
0.638485
 50
355.955572
 51
38.996414
  0
LINE
  8
1
  6
CONTINUOUS
 10
287.52
 20
34.707
 30
0.0
 11
287.52
 21
33.797
 31
0.0
  0
LINE
  8
1
  6
CONTINUOUS
 10
287.53
 20
34.707
 30
0.0
 11
287.53
 21
33.787
 31
0.0
  0
LINE
  8
1
  6
CONTINUOUS
 10
287.52
 20
33.797
 30
0.0
 11
286.47
 21
33.797
 31
0.0
  0
LINE
  8
1
  6
CONTINUOUS
 10
287.53
 20
33.787
 30
0.0
 11
286.48
 21
33.787
 31
0.0
  0
LINE
  8
1
  6
CONTINUOUS
 10
286.47
 20
33.797
 30
0.0
 11
286.47
 21
33.399
 31
0.0
  0
LINE
  8
1
  6
CONTINUOUS
 10
286.48
 20
33.787
 30
0.0
 11
286.48
 21
33.391
 31
0.0
  0
LINE
  8
1
  6
CONTINUOUS
 10
284.5
 20
33.399
 30
0.0
 11
284.5
 21
34.707
 31
0.0
  0
LINE
  8
1
  6
CONTINUOUS
 10
284.49
 20
33.391
 30
0.0
 11
284.49
 21
34.707
 31
0.0
  0
ARC
  8
1
  6
CONTINUOUS
 10
285.126945
 20
34.750622
 30
0.0
 40
0.628485
 50
141.338589
 51
184.044428
  0
ARC
  8
1
  6
CONTINUOUS
 10
285.126945
 20
34.750622
 30
0.0
 40
0.638485
 50
141.003586
 51
184.044428
  0
ARC
  8
1
  6
CONTINUOUS
 10
285.485
 20
38.110125
 30
0.0
 40
4.813125
 50
258.191061
 51
281.808939
  0
ARC
  8
1
  6
CONTINUOUS
 10
285.485
 20
38.110125
 30
0.0
 40
4.823125
 50
258.094519
 51
281.905481
  0
TEXT
  8
0
  6
CONTINUOUS
 10
283.926
 20
42.381
 30
0.0
 40
0.3
  1
TIPUS   NT555
  7
ROMANC
  0
LINE
  8
1
  6
CONTINUOUS
 10
287.765591
 20
35.547762
 30
0.0
 11
287.803591
 21
35.473762
 31
0.0
  0
LINE
  8
1
  6
CONTINUOUS
 10
287.786
 20
35.256783
 30
0.0
 11
287.786
 21
35.507
 31
0.0
  0
TEXT
  8
1
  6
CONTINUOUS
 10
287.81459
 20
34.956174
 30
0.0
 40
0.075
  1
0.80
 50
90.0
  7
ROMANC
  0
ENDSEC
  0
EOF
